MUZBANK



A Most Complete Bank Of Music Information

МУЗЫКАЛЬНО-ИНФОРМАЦИОННЫЙ БАНК

Поиск по сайту







    CCradle Of Filth • Hallowed Be Thy Name (аккорды и текст - chords & lyrics)


    365

    Print

    Видео «Hallowed Be Thy Name (Cradle Of Filth)»

    Видео клипы к песне подбираются автоматически сайтом youtube. Возможны некоторые несоответствия клипов песне.

    ↑ Спрятать рекламу ↑



    Download



     
    
    
    ----------------------------------------------------------------------------
    		Hallowed Be thy Name - Cradle of Filth
    ----------------------------------------------------------------------------
    Tabbed by: Animike123
    Email: Randyisgod15@yahoo.com
    
    Tuning: Standard (E,A,D,G,B,E)	
    
    This is an amazing cover. The other tab for this song was right, but i found a more practical 
    way to play it, its played basically in the same form as the IM version.
    
     
                                Verse 1
    
    e|-5-------------------5-----------------5---------------------------------|
    B|---8-6--5-6-5---5------8-6--5-6-5--------8-6--5-6-5---5--6h8p6h8p6h8p6---|
    G|--------------7-------------------7-6---------------7--------------------|
    D|----------------------------------------------------------------------| x2
    A|-------------------------------------------------------------------------|
    E|-------------------------------------------------------------------------|
              
              Verse 2
    e|-------------------------------|
    B|-------------------------------|
    G|---------------2---------------|
    D|---3p2h3-5-3p2---3p2h3p2-------| x8
    A|-5-----------------------5-----|
    E|-------------------------------|
                  
                                 Verse 3
    e|-------------------------------------------------|
    B|-------------------------------------------------|
    G|-------------------------------------------------|
    D|-7----7-----------------7------------------------|
    A|-5----5-8----8-10----7--5-7-8---5h7p5-7h8p7p5----|
    E|--------6----6-8-----5----5-6--------------------|
                           
                                 Verse 4
    e|-------------------------------------------------------------------------|
    B|-------------------------------------------------------------------------|
    G|-------------------------------------------------------------------------|
    D|-7xx7xx7xx7xx--------------------------7---------------------------------|
    A|-5xx5xx5xx5xx8xx8xx8xx8xx10x10x10x10x--5-8-10-5h7p5-7h8p7p5--------------|
    E|-------------6xx6xx6xx6xx8xx8xx8xx8xx----6-8-----------------------------|
    
                                 Verse 5
    e|-------------------------------------------------------------------------|
    B|-------------------------------------------------------------------------|
    G|----------2-----------2-----------2--------------------------------------|
    D|------2-3---3-2---2-3---3-2---2-3---3-2----------------------------------|
    A|-5--------------5-----------5--------------------------------------------|
    E|-------------------------------------------------------------------------|
    
    e|-------------------------------------------------------------------------|
    B|-------------------------------------------------------------------------|
    G|--------5-----------5-----------5----------------------------------------|
    D|----5-7---7-5---5-7---7-5---5-7---5b-------------------------------------|
    A|-8------------8-----------8----------------------------------------------|
    E|-------------------------------------------------------------------------|
    
    e|-------------------------------------------------------------------------|
    B|-------------------------------------------------------------------------|
    G|-------5/7-----------5-----------5---------------------------------------|
    D|---5-7-----7-5---5-7---7-5---5-7---5b------------------------------------|
    A|-8-------------8-----------8---------------------------------------------|
    E|-------------------------------------------------------------------------|
    
                               Interlude
    e|-----7-------7-------7-------7--------|
    B|-------7-8-----7-8-----7-8-----7-8----|
    G|---7-------7-------7-------7----------|
    D|--------------------------------------|
    A|--------------------------------------|
    E|--------------------------------------|
    
    Sorry, but i cant figure out the rest. If i figure it out ill post it.
    
    | /  slide up
    |   slide down
    | h  hammer-on
    | p  pull-off
    | ~  vibrato
    | +  harmonic
    | x  Mute note
    ============================================================================
     

    Тональность:

    Нет текста!



    Назад
    Рекомендуем посмотреть другие песни исполнителя «Cradle Of Filth»:

    • Комментарии Facebook ()
    • Комментарии ВКонтакте



    Добавить в Избранное Браузера
    Сохранить здесь Очистить


    x

    0


    +
    -

    +
    -

    -

    Авторизация





    Зарегистрироваться

    M

    Дата и время

    • 05:28:08
       

    Социальные ссылки


    Наши приложения

    • Muzbank App Play Market
    • Muzbank Amazon App