MUZBANK



A MOST COMPLETE BANK OF MUSIC INFORMATION

МУЗЫКАЛЬНО-ИНФОРМАЦИОННЫЙ БАНК







    CCranberries • Just My Imagination (аккорды и текст - chords & lyrics)


    296

    Print

    Видео «Just My Imagination (Cranberries)»

    Видео клипы к песне подбираются автоматически сайтом youtube. Возможны некоторые несоответствия клипов песне.

    ↑ Спрятать рекламу ↑






    Chords Used:
    e----6-----5-----3-----3-----1-----|
    B----6-----5-----4-----3-----1-----|
    G----7-----6-----5-----3-----2-----|
    D----8-----7-----5-----5-----3-----|
    A----8-----8-----3-----5-----3-----|
    E----6-----5-----3-----3-----1-----|
    
    
    Interlude:
    e---------------------------------------------------------------|
    B--------------3-6-6-6-6-6-6h8-6-4-4-4-4-4-6-4------------------|
    G--3-3-3-3-3-5---------------------------------7-7-7-5-5-5-7-5--|
    D---------------------------------------------------------------|
    A---------------------------------------------------------------|
    E---------------------------------------------------------------|
    
    Lyrics:
    
    These was a game we used to play,
    We would hit the town on friday night,
    And stay in bed until sunday,
    We used to be so free,
    we were living for the love we had and,
    Living not for reality.
    
    [Chorus]
    Just my imagination, Just my imagination, Just my imagination,
    It was....
    Just my imagination, Just my imagination, Just my imagination,
    It was....
    [End of Chorus]
    
    [Interlude]
    
    There was a time i used to pray,
    I have always kept my faith in love,
    It's the greatest thing from the man above,
    The game i used to play,
    I've always put my cards upon the table,
    Let it never be said that i'd be unstable.
    
    [Chorus]
    
    [Interlude]
    
    There is a game i like to play,
    I like to hit the town on friday night,
    And stay in bed until sunday,
    We'll always be this free,
    We will living for the love we have,
    Living not for reality.
    
    [Chorus]
    

    Тональность:

    Это должно быть в ТОП-листе! - Топ-лист композиций



    Назад
    Рекомендуем посмотреть другие песни исполнителя «Cranberries»:

    • Комменты Fb ()
    • Комменты ВК



    Добавить в Избранное Браузера
    Сохранить здесь Очистить


    x

    0


    +
    -

    +
    -

    -

    Авторизация





    Зарегистрироваться

    M

    Дата и время

    • 05:01:47
       

    Социальные ссылки


    Наши приложения

    • Muzbank App Play Market
    • Muzbank Amazon App