MUZBANK



A Most Complete Bank Of Music Information

МУЗЫКАЛЬНО-ИНФОРМАЦИОННЫЙ БАНК

Поиск по сайту







    CCream • White Room (аккорды и текст - chords & lyrics)


    157

    Print

    Видео «White Room (Cream)»

    Видео клипы к песне подбираются автоматически сайтом youtube. Возможны некоторые несоответствия клипов песне.

    ↑ Спрятать рекламу ↑



    Download



     
    
    
    White Room
    
    
                                                                         Eric Clapton
    Eric Clapton
    
    
    E||---10~-------------------|--8~--------------------|------------------------|
    B||---11~-------------------|--10~-------------------|--10~-------------------|
    G||*------------------------|------------------------|--10~-------------------|
    D||*------------------------|------------------------|------------------------|
    A||-------------------------|------------------------|------------------------|
    E||-------------------------|------------------------|------------------------|
    
    -----------------------|--2---------------------|------------------------|
    --8~-------------------|--3---------------------|------------------------|
    --9~-------------------|--2----2---2-------0----|-------0-----3-----5----|
    -----------------------|--0----0---0------------|-------------3-----5----|
    -----------------------|-------------3--3-------|--2----------1-----3----|
    -----------------------|------------------------|----------1-----3-------|
    
    ------------------------|--------------------------|--2---------------------|
    --3----3-------------3--|--------------------------|--3---------------------|
    --2----2----------0-----|--------0-----3-----5-----|--2----2---2------------|
    --0----0----------0-----|--------------3-----5-----|--0----0---0-------5----|
    ------------3--3--------|--2--2--------1-----3h-0--|-------------3--3--3----|
    ------------------------|-----------1-----3--------|------------------------|
    
    -------------------------|--2----------------------|------------------------|
    -------------------------|--3----3---3-------------|------------------------|
    -------0-----3-----5/-2--|--2----2---2-------0---0-|--------0----3-----5----|
    -------0-----3-----5/-2--|--0----0---0-------0-----|--------0----3-----5----|
    --2----------1-----3-----|-------------3--3--------|--2--2-------1--3--3----|
    ----------1-----3--------|-------------------------|----------------3-------|
    
    --2----2---2------------|-------------------------|------------------------|
    --3----3---3------------|-------------------------|--3----3---3------------|
    --2----2---2-------0----|--------0----3-----5-----|--2----2---2-------0----|
    --0----0---0-------0----|--------0----3-----5-----|--0----0---0-------0----|
    -------------3--3-------|--2--2-------1-----3h-0--|-------------3--3-------|
    ------------------------|----------------3--------|------------------------|
    
    --------------------------|--2----2---2------------|--------------------------|
    --------------------------|--3----3---3------------|--------------------------|
    --------0-----3-----5-----|--2----2---2-------0----|--------0-----3-----5-----|
    --------0-----3-----5-----|--0----0---0-------0----|--------0-----3-----5-----|
    --2--2--------1-----3h-0--|-------------3--3-------|--2--2--------1-----3h-0--|
    -----------1-----3--------|------------------------|-----------1-----3--------|
    
    --2---------------------|----------------------|-------------------|
    --3----3---3------------|----------------------|--1----------------|
    --2----2---2-------0----|-------0---------0----|--0----------------|
    --0----0---0-------0----|--0----0---------0----|--2----------------|
    -------------3--3-------|--2---------1---------|--3----------------|
    ------------------------|----------------------|-------------------|
    
    ---------------------|------------------------|-------------------|
    --3--------0----3----|--3---------------------|--2----------------|
    --0--------0----0----|--3----3----------------|--2----------------|
    --0--------0----0----|--3----3---3-5--3-------|--2----------------|
    --0--------2----2----|-------------------5/---|--0----------------|
    ---------------------|------------------------|-------------------|
    
    -------------------|----------------------|---------------------|
    --1----------------|--0------0-----0------|--3------------3-----|
    --0----------------|--0---------0--0------|--3---------------3--|
    --2----------------|--0------------0------|--3------------------|
    --3----------------|--0-------------------|--1------------------|
    -------------------|----------------------|---------------------|
    
    --------------------|------------------------|-------------------|
    --5------------5/---|--7---------------------|-------------------|
    --5------------5/---|--7------------7--7-----|--7----------------|
    --5------------5/---|--7--------7h9-------9--|-------------------|
    --3------------3/---|--5---------------------|-------------------|
    --------------------|------------------------|-------------------|
    
    ------------------|------------------|----------------------------|
    ------------------|------------------|------------13--13--13h-10--|
    ------------------|------------------|----------------------------|
    ------------------|------------------|------12--------------------|
    ------------------|------------------|----------------------------|
    ------------------|------------------|----------------------------|
    
    ---------------------------------|------------------|------------------|
    ---------------------------------|------------------|------------------|
    --12--10b------------------------|------------------|------------------|
    ----------12--12-------------12--|------------------|------------------|
    ------------------10--8----------|------------------|------------------|
    -------------------------10/-----|------------------|------------------|
    
    -----------------------|----------------------------|----------------------|
    ------x--10------10----|------------13--------------|----------------------|
    ------x--12b-----12b---|----12b---------12b---------|--10------------------|
    -----------------------|--------------------12b-12--|------12~-------------|
    -----------------------|----------------------------|----------------------|
    -----------------------|----------------------------|----------------------|
    
    ------------------|--------------------------------|
    ------------------|--------------------------------|
    ------------------|--------------------10----10-12b|
    ------------------|----------------12-----12-------|
    ------------------|------x--8/12-------------------|
    ------------------|------x-------------------------|
    
    ----10----------------------------------|------------------|------------------|
    -------13-10----------------------------|------------------|------------------|
    -------------12r12h10-12-10-------------|------------------|------------------|
    ----------------------------12h10-12/---|------------------|------------------|
    ----------------------------------------|------------------|------------------|
    ----------------------------------------|------------------|------------------|
    
    -----------------------------------|------10----------------------------------|
    ------x----------------------------|---------13-10----------------------------|
    ------x--10b-----------10----12-10-|--12b----------12r12h10-12h10-----10h12/--|
    -------------12h10-12-----12-------|------------------------------12----------|
    -----------------------------------|------------------------------------------|
    -----------------------------------|------------------------------------------|
    
    -------------------|-------------------|----------------------|
    --2----------------|--1----------------|--0------0-----0------|
    --2----------------|--0----------------|--0---------0--0------|
    --2----------------|--2----------------|--0------------0------|
    --0----------------|--3----------------|--0-------------------|
    -------------------|-------------------|----------------------|
    
    ---------------------|--------------------|------------------------|
    --3------------3-----|--5------------5/---|--7---------------------|
    --3---------------3--|--5------------5/---|--7------------7--7-----|
    --3------------------|--5------------5/---|--7--------7h9-------9--|
    --1------------------|--3------------3/---|--5---------------------|
    ---------------------|--------------------|------------------------|
    
    --10~-------------------|--8~--------------------|------------------------|
    --11~-------------------|--10~-------------------|--10~-------------------|
    ------------------------|------------------------|--10~-------------------|
    ------------------------|------------------------|------------------------|
    ------------------------|------------------------|------------------------|
    ------------------------|------------------------|------------------------|
    
    -----------------------|------------------|------------------------------|
    --8~-------------------|------------------|--------13--------------------|
    --9~-------------------|------------------|------------12b-12--12-10-----|
    -----------------------|------------------|--------------------------12/-|
    -----------------------|------------------|------------------------------|
    -----------------------|------------------|------------------------------|
    
    --------14----------------------|------------14--------------|
    --------------------------------|----------------------------|
    --14----14----12--10------------|------12-14----14-14/-------|
    ----------------------12-10-12~-|----------------------------|
    --------------------------------|----------------------------|
    --------------------------------|----------------------------|
    
    --------12--------12----------|--14--------15h-14--15h-14--|
    ------------------------------|----------------------------|
    --12--------12--------12/-14h-|--14------------------------|
    ------------------------------|----------------------------|
    ------------------------------|----------------------------|
    ------------------------------|----------------------------|
    
    -----------------------------|------------17----------------|
    --15~--------------15--15~---|--15-15-15------15------17b---|
    --------5/-16--16------------|------------------------------|
    -----------------------------|------------------------------|
    -----------------------------|------------------------------|
    -----------------------------|------------------------------|
    
    --------------17--------------|--------------------------------------------|
    --17--17r-17--------17r---17--|--15~------15-18-15----18-15----18-15----18h|
    ------------------------------|--------16----------17-------17-------17----|
    ------------------------------|--------------------------------------------|
    ------------------------------|--------------------------------------------|
    ------------------------------|--------------------------------------------|
    
    --------------------------------------------------|
    --15----18h15----18h15----18h15----18h15----18h15-|
    -----17-------17-------17-------17-------17-------|
    --------------------------------------------------|
    --------------------------------------------------|
    --------------------------------------------------|
    
    -------------------------------|------------------------------------------|
    --x--15--15~---12-15-15--15~---|--12-15-15--12-15-15--12-15-15--12-15-15--|
    -------------------------------|------------------------------------------|
    -------------------------------|------------------------------------------|
    -------------------------------|------------------------------------------|
    -------------------------------|------------------------------------------|
    
    ------17------------------17b---|--17r-17-------17------------------|
    --17b-----15------15------------|-------------------17r17-15--15----|
    --------------16------16--------|----------0---------------------16-|
    --------------------------------|-----------------------------------|
    --------------------------------|-----------------------------------|
    --------------------------------|-----------------------------------|
    
    ----------------------17------|--------------------------------|
    --15--15--15~---17b-------17r-|--17--15--17------15~--15-------|
    ------------------------------|--------------16----------16/---|
    ------------------------------|--------------------------------|
    ------------------------------|--------------------------------|
    ------------------------------|--------------------------------|
    
    --10~-------------------|--8~--------------------|------------------------|
    --11~-------------------|--10~-------------------|--10~-------------------|
    ------------------------|------------------------|--10~-------------------|
    ------------------------|------------------------|------------------------|
    ------------------------|------------------------|------------------------|
    ------------------------|------------------------|------------------------|
    
    -----------------------|------------------|--------10------------------|
    --8~-------------------|------------------|----------------------------|
    --9~-------------------|------------------|--12b-------13--12b---12~---|
    -----------------------|------------------|----------------------------|
    -----------------------|------------------|----------------------------|
    -----------------------|------------------|----------------------------|
    
    --10----------------10------|------------------------------|
    ------13----------------13--|------------------------------|
    ----------12b---------------|--12r---12--10--12------10b---|
    ----------------------------|--------------------12--------|
    ----------------------------|------------------------------|
    ----------------------------|------------------------------|
    
    --------------------------------------|----------------------------10----|
    --------------------------------------|--------13b---13b---13b--------13-|
    --10~---12-10----10-12--10b---12--10--|----------------------------------|
    --------------12----------------------|--12------------------------------|
    --------------------------------------|----------------------------------|
    --------------------------------------|----------------------------------|
    
    --------------------------------|
    --------------------------------|
    ----12b-12--10------10-12/14----|
    ----------------12--------------|
    --------------------------------|
    --------------------------------|
    
    --------13-------13-------13-------13-------13----|
    --13h15----13h15----13h15----13h15----13h15----13h|
    --------------------------------------------------|
    --------------------------------------------------|
    --------------------------------------------------|
    --------------------------------------------------|
    
    -----13-------13-------13-------13----------------|
    --15----13h15----13h15----13h15-------------------|
    -----------------------------------12-12h10-------|
    --------------------------------------------12h10-|
    --------------------------------------------------|
    --------------------------------------------------|
    
    --------------------------10------|
    ------------------------------13--|
    --------10----12h10-12b-----------|
    --12~------12---------------------|
    ----------------------------------|
    ----------------------------------|
    
    -------------------------------------------------|
    -------------------------------------------------|
    -------------------------------------------------|
    --12b-12--10-12-10-----10-12-10-----10-12-10-----|
    -------------------12-----------12-----------12--|
    -------------------------------------------------|
    
    ------------------------------------------|-------------------------------------|
    ------------------------------------------|-----------------13--13---10-13---10-|
    --10~-------------------10----12-10-------|------10----10-x---------------------|
    --------12-10-----10h12----12-------12h10-|--12-----12--------------------------|
    --------------12--------------------------|-------------------------------------|
    ------------------------------------------|-------------------------------------|
    
    --------------10------------------------|
    --13-10-13-------13-10-13--10-13-10-13--|
    ----------------------------------------|
    ----------------------------------------|
    ----------------------------------------|
    ----------------------------------------|
    
    --10--------------------------------------|--------------------------------|
    -----13h10----10---------------------10r--|--10---10-----------10--13------|
    -----------12----10h12h10b----------------|----------10b---------------12--|
    ---------------------------12-10-12-------|--------------------------------|
    ------------------------------------------|--------------------------------|
    ------------------------------------------|--------------------------------|
    
    ---------------------------------------10-|
    ------------------------------------------|
    --12b---10h12h10----10-12-12b-12-10-12b---|
    -----------------12-----------------------|
    ------------------------------------------|
    ------------------------------------------|
    
    -----------------------------------10------|----------------------------|
    --13-10-----------10-------------------13--|--13~---13~---13--15b---15b-|
    --------12--10----------x-10h12/14-----14--|--14~---14~---14------------|
    ---------------12----12--------------------|----------------------------|
    -------------------------------------------|----------------------------|
    -------------------------------------------|----------------------------|
    
    -------------------------------------13----|
    --12r15-15-13-15-13-15-15~-----13-15-------|
    ----------------------------------------14-|
    -------------------------------------------|
    -------------------------------------------|
    -------------------------------------------|
    
    ----------------------------------------------|----------------10------13b---|
    ----------------------------------------------|--13--13b-13b-------13--------|
    --12-10-12h10-----------10----12h10-----------|------------------------------|
    --------------12h10-12-----12-------12h10-12--|------------------------------|
    ----------------------------------------------|------------------------------|
    ----------------------------------------------|------------------------------|
    
    ----------------------------------13----|
    --15r15-13h15h13-15-15~-----13-15-------|
    -------------------------------------14-|
    ----------------------------------------|
    ----------------------------------------|
    ----------------------------------------|
    
    ----------------------------------------------|------------------10------13b-|
    ----------------------------------------------|--13--13b---13b-------13------|
    --12-10-12h10-----------10----12-10-----------|------------------------------|
    --------------12h10-12-----12-------12-10-12--|------------------------------|
    ----------------------------------------------|------------------------------|
    ----------------------------------------------|------------------------------|
    
    --13--10-13-10-----10--10------------|
    ---------------13----------13--13b---|
    -------------------------------------|
    -------------------------------------|
    -------------------------------------|
    -------------------------------------|
    
    --10--------------------------------------------|----------------------------|
    -----13-10--------------------------------------|-----------10b---------10b--|
    -----------12r12-10h12h10-----------10----12h10-|-----12b---------12b--------|
    --------------------------12h10-12-----12-------|--12------------------------|
    ------------------------------------------------|----------------------------|
    ------------------------------------------------|----------------------------|
    
    --------------------------|----------------------------||
    --------10b---------10b---|--14--10b-----10------------||
    --12b---------12b---------|------------------12b---12b-||
    --------------------------|----------------------------||
    --------------------------|----------------------------||
    --------------------------|----------------------------||
     

    Тональность:

    Нет текста!



    Назад
    Рекомендуем посмотреть другие песни исполнителя «Cream»:

    • Комментарии Facebook ()
    • Комментарии ВКонтакте



    Добавить в Избранное Браузера
    Сохранить здесь Очистить


    x

    0


    +
    -

    +
    -

    -

    Авторизация





    Зарегистрироваться

    M

    Дата и время

    • 00:50:52
       

    Социальные ссылки


    Наши приложения

    • Muzbank App Play Market
    • Muzbank Amazon App