MUZBANK



A Most Complete Bank Of Music Information

МУЗЫКАЛЬНО-ИНФОРМАЦИОННЫЙ БАНК

Поиск по сайту







    CCreed • Bullets (аккорды и текст - chords & lyrics)


    216

    Print

    Видео «Bullets (Creed)»

    Видео клипы к песне подбираются автоматически сайтом youtube. Возможны некоторые несоответствия клипов песне.

    ↑ Спрятать рекламу ↑



    Download



     
    
    
    Artist: Creed
    Album: Weathered
    Song: Bullets
    Tabbed By: Taylor Wellborn
    
    Tunning: Drop D (DADG)
    
    Intro (w/pick)(Riff 1)
    |------------------------------|
    |-0-000-000-000--0-000-000-000-|
    |------------------------------|
    |------------------------------|
    Repeat 
    
    Riff 2
    |----------------------|-----------------|
    |----------------------|-----------------|
    |----------------------|-----------------|
    |-12-0-0-0-0-0-1-0-0-0-|-12-0-0-0-0-0-1/-|
    
    |----------------------|-----------------|
    |----------------------|-----------------|
    |----------------------|-----------------|
    |-12-0-0-0-0-0-1-0-0-0-|-12-0-0-0-0-0-1/-|
    
    Repeat (Riff 2) 4 more times
    
    Riff 3
    
    |---------------------|
    |---------------------|
    |---------------------|
    |-0--1--0--1--0--1--0-|
    
    |---------------------------|
    |---------------------------|
    |---------------------------|
    |-0--1--0--1--0--1--0--0--0-|
    
    |---------------------|
    |---------------------|
    |---------------------|
    |-0--1--0--1--0--1--0-|
    
    |---------------------------|
    |----------------------1----|
    |-------------------------5-|
    |-0--1--0--1--0--1--0-------|
    
    Riff 4
    |---------------------|
    |---------------------|
    |---------------------|
    |-0--1--0--1--0--1--0-|
    
    |---------------------------|
    |---------------------------|
    |---------------------------|
    |-0--1--0--1--0--1--0--0--0-|
    
    |---------------------|
    |---------------------|
    |---------------------|
    |-0--1--0--1--0--1--0-|
    
    |---------------------------|
    |---------------------------|
    |---------------------------|
    |-0--1--0--1--0--1--0--0--0-|
    
    Riff 5
    |-------|-----------|-----|
    |-------|-----------|-----|
    |-------|-----------|-----|
    |-12---|-0---X---0-|--0--|
    
    Riff 6
    |-----------|-----|
    |-----------|-----|
    |-----------|-----|
    |-0---0---0-|--0--|
    
    Repeat (Riff 1) 2 times
    
    Repeat (Riff 1) 5 times
    
    Riff 7
    |-------------------------|
    |-------------------------|
    |-------------------------|
    |-0-0---0---0-0-0-0-0-0-0-|
    
    |-------------------------|
    |-------------------------|
    |-------------------------|
    |-0---0-0-0-0-0---0-0-0-0-|
    
    |-------------------------|
    |-------------------------|
    |-------------------------|
    |-0---0-0---0-0---0-0---0-|
    
    |-------------------------|
    |-------------------------|
    |-------------------------|
    |-0-0-0-0-0-0-0-0-0-0-0-0-|
    
    Repeat (Riff 3) 3 times
    
    Repeat (Riff 4) 1 time
    
    Riff 8
    |--------|------------|-----|
    |--------|------------|-----|
    |------/-|------------|-----|
    |-0------|--0---0---0-|--0--|
    
    Riff 9
    |---------|
    |---------|
    |---------|
    |-0--x--0-|
    
    |---------------------------------|
    |---------------------------------|
    |---------------------------------|
    |-13-12-0-10-12-0-13-12-0-10-12-0-|
    
    |--------------------------|
    |--------------------------|
    |--------------------------|
    |-13-12-0-10-12-10-0--0--0-|
    
    |----|
    |----|
    |----|
    |-0~-|
     

    Тональность:

    Нет текста!



    Назад
    Рекомендуем посмотреть другие песни исполнителя «Creed»:

    • Комментарии Facebook ()
    • Комментарии ВКонтакте



    Добавить в Избранное Браузера
    Сохранить здесь Очистить


    x

    0


    +
    -

    +
    -

    -

    Авторизация





    Зарегистрироваться

    M

    Дата и время

    • 17:06:10
       

    Социальные ссылки


    Наши приложения

    • Muzbank App Play Market
    • Muzbank Amazon App