MUZBANK



A Most Complete Bank Of Music Information

МУЗЫКАЛЬНО-ИНФОРМАЦИОННЫЙ БАНК

Поиск по сайту







    CCreed • Faceless Man (аккорды и текст - chords & lyrics)


    136

    Print

    Видео «Faceless Man (Creed)»

    Видео клипы к песне подбираются автоматически сайтом youtube. Возможны некоторые несоответствия клипов песне.

    ↑ Спрятать рекламу ↑



    Download



     
    
    
    Song: Faceless Man
    Band: Creed
    Album: Human Clay
    Tabbed by Joshua Page (JPage92355@aol.com) 10/11/99
    Drop-D Tuning
    
    Intro: (Clean Electric)
    Play 3 times
    E-|-----------------------------------------|
    B-|--10h11--11h13--13-13--------------------|
    G-|-----------------------11h12--12h14--14--|
    D-|---0------0------0-----------------------|
    A-|------------------------0------0------0--|
    D-|-----------------------------------------|
    
    This once
    E-|--------------------------------|
    B-|--10---11-------------10h11p10--|
    G-|------------11---12-------------|
    D-|-----0----0----0----0-----------|
    A-|--------------------------------|
    D-|--------------------------------|
    End of Intro
    
    Verse 1:Play 2 times (Clean Electric)
    Play 3 times
    E-|-----------------------------------------|
    B-|--10h11--11h13--13-13--------------------|
    G-|-----------------------11h12--12h14--14--|
    D-|---0------0------0-----------------------|
    A-|------------------------0------0------0--|
    D-|-----------------------------------------|
    
    Play Once:
    E-|-----------------------------------------|
    B-|--10h11--11h13--13-13--------------------|
    G-|-----------------------11h12--12p11--11--|
    D-|---0------0------0-----------------------|
    A-|------------------------0------0------0--|
    D-|-----------------------------------------|
    End of Verse 1
    
    1st Chorus: (Acoustic)
    Part 1:Play twice
    E-|--3--3-3-3--3--3------------------2--2-2-2--2--2--2--2-2-2--2--|
    B-|--3--3-3-3--3--3------------------3--3-3-3--3--3--3--3-3-3--3--|
    G-|--0--0-0-0--0--0--7--7-7-7--7--7--2--2-2-2--2--2--2--2-2-2--2--|
    D-|--2--2-2-2--2--2--5--5-5-5--5--5--0--0-0-0--0--0--0--0-0-0--0--|
    A-|--3--3-3-3--3--3--5--5-5-5--5--5--0--0-0-0--0--0--0--0-0-0--0--|
    D-|------------------5--5-5-5--5--5--0--0-0-0--0--0--0--0-0-0--0--|
    
    Part 2:Play Twice:
    E-|----------------------------------------------------------|
    B-|-------3-3------------3-----------------------------------|
    G-|-----------0--------0---0----------7-7------7--7-7-7-7-7--|
    D-|-------------2----2-------2------------5----5--5-5-5-5-5--|
    A-|--3-3-----------3-----------3------------5--5--5-5-5-5-5--|
    E-|------------------------------5-5-----------5--5-5-5-5-5--|
    
    E-|--2--2-2-3--2--2-2-2-2-2--3--2-2--|
    B-|--3--3-3-3--3--3-3-3-3-3--3--3-3--|
    G-|--2--2-2-2--2--2-2-2-2-2--2--2-3--| None of the Chords
    D-|--0--0-0-0--0--0-0-0-0-0--0--0-0--| in the chorus show
    A-|--0--0-0-0--0--0-0-0-0-0--0--0-0--| the exact number of strums
    E-|--0--0-0-0--0--0-0-0-0-0--0--0-0--|
    End of 1st Chorus
    
    Verse 2:Play 4 times (Clean)
    E-|-----------------------------------------|
    B-|--10h11--11h13--13-13--------------------|
    G-|-----------------------11h12--12h14--14--|
    D-|---0------0------0-----------------------|
    A-|------------------------0------0------0--|
    E-|-----------------------------------------|
    
    E-|-----------------------------------------|
    B-|--10h11--11h13--13-13--------------------|
    G-|-----------------------11h12--12p11--11--|
    D-|---0------0------0-----------------------|
    A-|------------------------0------0------0--|
    E-|-----------------------------------------|
    End of Verse 2
    
    2nd Chorus: (Clean)
    Part 1:Play 2 times
    E-|--3--3-3-3--3--3------------------2--2-2-2--2--2--2--2-2-2--2--|
    B-|--3--3-3-3--3--3------------------3--3-3-3--3--3--3--3-3-3--3--|
    G-|--0--0-0-0--0--0--7--7-7-7--7--7--2--2-2-2--2--2--2--2-2-2--2--|
    D-|--2--2-2-2--2--2--5--5-5-5--5--5--0--0-0-0--0--0--0--0-0-0--0--|
    A-|--3--3-3-3--3--3--5--5-5-5--5--5--0--0-0-0--0--0--0--0-0-0--0--|
    E-|------------------5--5-5-5--5--5--0--0-0-0--0--0--0--0-0-0--0--|
    
    Part 2:Then this once:
    E-|----------------------------------------------------------|
    B-|-------3-3------------3-----------------------------------|
    G-|-----------0--------0---0----------7-7------7--7-7-7-7-7--|
    D-|-------------2----2-------2------------5----5--5-5-5-5-5--|
    A-|--3-3-----------3-----------3------------5--5--5-5-5-5-5--|
    E-|------------------------------5-5-----------5--5-5-5-5-5--|
    
    E-|--2--2-2-3--2--2-2-2-2-2--3--2-2--|
    B-|--3--3-3-3--3--3-3-3-3-3--3--3-3--|
    G-|--2--2-2-2--2--2-2-2-2-2--2--2-3--| None of the Chords
    D-|--0--0-0-0--0--0-0-0-0-0--0--0-0--| in the chorus show
    A-|--0--0-0-0--0--0-0-0-0-0--0--0-0--| the exact number of strums
    E-|--0--0-0-0--0--0-0-0-0-0--0--0-0--|
    
                                     Bring in Distortion
    E-|-------------------------------------------------------------------|
    B-|-------3-3------------3--------------------------------------------|
    G-|-----------0--------0---0---------7-7-7-7-7-7-7-7-7-7-7-7-7-7-7-7--|
    D-|-------------2----2-------2-------5-5-5-5-5-5-5-5-5-5-5-5-5-5-5-5--|
    A-|--3-3-----------3-----------3-----5-5-5-5-5-5-5-5-5-5-5-5-5-5-5-5--|
    E-|------------------------------5-5-5-5-5-5-5-5-5-5-5-5-5-5-5-5-5-5--|
    End of Chorus 2
    
    Bridge 1:
    Part 1:
    E-|---------------------------------------------|
    B-|---------------------------------------------|
    G-|---------------------------------------------|
    D-|--4--4--4--4-4h5p4-4--4-4-4--4--4--4-5hp7-5--|
    A-|--0--0--0--0-------0--0-0-0--0--0--0---------|
    D-|--0--0--0--0-------0--0-0-0--0--0--0---------|
    
    Part 2: Play this 2 times
    E-|------------------------------3-----------------|
    B-|----3-----3-----3-----3-------3-----------------|
    G-|------0-----0-----0-----0-----0-7--7--7-7-7--7--|
    D-|--------2-----2-----2-----2---2-5--5--5-5-5--5--|
    A-|--3-------------------------3-3-5--5--5-5-5--5--|
    D-|--------------------------------5--5--5-5-5--5--|
    
    E-|------------------------------------------------|
    B-|-------------------------------------------7----|
    G-|-----------------------------4-----4-5-4-5---7--|
    D-|--0----0-4--4h5p4-4-5--4-5-7---5-7--------------|
    A-|--0--3------------------------------------------|
    D-|--0---------------------------------------------|
    End of Bridge 1
    
    Bridge 2: Play twice
    E-|--3--3--3-3-3--3--3-3----------------------|
    B-|--3--3--3-3-3--3--3-3----------------------|
    G-|--0--0--0-0-0--0--0-0-7--7--7-7-7--7--7-7--|
    D-|--2--2--2-2-2--2--2-2-5--5--5-5-5--5--5-5--|
    A-|--3--3--3-3-3--3--3-3-5--5--5-5-5--5--5-5--|
    E-|----------------------5--5--5-5-5--5--5-5--|
    
    E-|--------------------------------------------3--|
    B-|--------------------------------------------3--|
    G-|--------------------------------------------2--|
    D-|--4--4--4--4-4h5p4-4--4-4-4--4--4--4-5hp7-5-0--|
    A-|--0--0--0--0-------0--0-0-0--0--0--0-----------|
    D-|--0--0--0--0-------0--0-0-0--0--0--0-----------|
    End of Bridge 2
    
    Bridge 3: (Clean)
    E-|--------------------------2-3-3-3-5-2--2--2--2-3-3-2-2-2--2--2-2-2--2-3-3-2--|
    B-|----3-----3-----3-----3----------------3--3--3-3-3-3-3-3--3--3-3-3--3-3-3-3--|
    G-|--0---2-----2-----2-----2--------------2--2--2-2-2-2-2-2--2--2-2-2--2-2-2-2--|
    D-|--------0-----0-----0------------------0--0--0-0-0-0-0-0--0--0-0-0--0-0-0-0--|
    A-|-----------------------------------------------------------------------------|
    D-|-----------------------------------------------------------------------------|
    
    (Acoustic)
    E-|-----------------------------------------------------------------------|
    B-|-----------------------------------------------------------------------|
    G-|------7-7-----7-7---------7-7----7---7-7-7-7-7-7--7-7--7-7-7-7--7-7-7--|
    D-|----------7-------7-7---------5--5-5-5-5-5-5-7-7--7-7--7-7-7-7--7-7-7--|
    A-|--5-5----------------------------5-5-5-5-5-5-5-5--5-5--5-5-5-5--5-5-5--|
    D-|----------------------5-5--------5-5-5-5-5-5---------------------------|
    
    E-|---------------------------2--2-2-2--2--2-2-2--2--2-2-2--|
    B-|--7--7-7-7--7-7-7--7-7-7---3--3-3-3--3--3-3-3--3--3-3-3--|
    G-|--7--7-7-7--7-7-7--7-7-7---2--2-2-2--2--2-2-2--2--2-2-2--|
    D-|--4--4-4-4--4-4-7--4-4-4-0-0--0-0-0--0--0-0-0--0--0-0-0--|
    A-|---------------------------------------------------------|
    D-|---------------------------------------------------------|
    
    E-|--2--9-10-12-9-10-12-9-10-12-9-12p10p9-9--|
    B-|--3---------------------------------------|
    G-|--2---------------------------------------|
    D-|--0---------------------------------------|
    A-|------------------------------------------|
    D-|------------------------------------------|
    
    (Distortion)
    E-|----------------------------------------------------------------------|
    B-|----------------------------------------------------------------------|
    G-|--7----6--6--6-6-6-6-6-6--6--7--7--7-7-7--7-7-7-6--6--6-6-6-6-6-6--6--|
    D-|--7----7--7--7-7-7-7-7-7--7--7--7--7-7-7--7-7-7-7--7--7-7-7-7-7-7--7--|
    A-|--5----5--5--5-5-5-5-5-5--5--5--5--5-5-5--5-5-5-5--5--5-5-5-5-5-5--5--|
    D-|--0----5--5--5-5-5-5-5-5--5--0------------------5--5--5-5-5-5-5-5--5--|
    
    E-|-----------------------------------------------------------|
    B-|--7--7--7-7-7-7-7-7-7-7--7---------------------------------|
    G-|--7--7--7-7-7-7-7-7-7-7--7-7--7--7-7-7--7--7--7--7-7-7--7--|
    D-|--4--4--4-4-4-4-4-4-4-4--4-5--5--5-5-5--5--5--5--5-5-5--5--|
    A-|---------------------------5--5--5-5-5--5--5--5--5-5-5--5--|
    D-|---------------------------5--5--5-5-5--5--5--5--5-5-5--5--|
    
    E-|------------------------------------------------|
    B-|-------------------------------------------7----|
    G-|-----------------------------4-----4-5-4-5---7--|
    D-|--0----0-4--4h5p4-4-5--4-5-7---5-7--------------|
    A-|--0--3------------------------------------------|
    D-|--0---------------------------------------------|
    End of Bridge 3
    
    Then repeat Bridge 2 and end with Chorus Part 2 one time.
     

    Тональность:

    Нет текста!



    Назад
    Рекомендуем посмотреть другие песни исполнителя «Creed»:

    • Комментарии Facebook ()
    • Комментарии ВКонтакте



    Добавить в Избранное Браузера
    Сохранить здесь Очистить


    x

    0


    +
    -

    +
    -

    -

    Авторизация





    Зарегистрироваться

    M

    Дата и время

    • 13:08:46
       

    Социальные ссылки


    Наши приложения

    • Muzbank App Play Market
    • Muzbank Amazon App