MUZBANK



A Most Complete Bank Of Music Information

МУЗЫКАЛЬНО-ИНФОРМАЦИОННЫЙ БАНК

Поиск по сайту







    CCreed • Higher (аккорды и текст - chords & lyrics)


    244

    Print

    Видео «Higher (Creed)»

    Видео клипы к песне подбираются автоматически сайтом youtube. Возможны некоторые несоответствия клипов песне.

    ↑ Спрятать рекламу ↑



    Download



     
    
    
    Artist: Creed
    Song Title: Higher
    Tunning: Drop-D DADGBe
    
    Play one time with out distortion
    
    A.
    
    e--------------------------------------------------------
    B--------------------------------------------------------
    G-----7-7-9-9-9/11---11-9-11-11h12-9-9-9-9-11-11-11p9p7-9
    D-0-0-0-0-0-0-0-------0-0--0--0--0-0-7-7--7--7--7-------7
    A-0-0-0-0-0-0-0-------0-0--0--0--0-0-7-7--7--7--7-------7
    D-0-0-0-0-0-0-0-------0-0--0--0--0-0-7-7--7--7--7-------7
    
    e-----------------------------------------------------
    B-----------------------------------------------------
    G-11-9-9-7-7-9-9-7-7-7-7-7--0-0-12-11-11-11-9-11-11-11
    D--7-7-7-5-5-5-5-5-5-5-5-5--0-0--0--0--0--0-0--0--0--0
    A--7-7-7-5-5-5-5-5-5-5-5-5--0-0--0--0--0--0-0--0--0--0
    D--7-7-7-5-5-5-5-5-5-5-5-5--0-0--0--0--0--0-0--0--0--0
    
    e-----------------------------------------------------
    B-----------------------------------------------------
    G-9-7-------------------------------------------------
    D-0-0-------------------------------------------------
    A-0-0-------------------------------------------------
    D-0-0-------------------------------------------------
    
    Play one time with distortion
    
    B.
    
    e--------------------------------------------------------
    B--------------------------------------------------------
    G-----7-7-9-9-9/11---11-9-11-11h12-9-9-9-9-11-11-11p9p7-9
    D-0-0-0-0-0-0-0-------0-0--0--0--0-0-7-7--7--7--7-------7
    A-0-0-0-0-0-0-0-------0-0--0--0--0-0-7-7--7--7--7-------7
    D-0-0-0-0-0-0-0-------0-0--0--0--0-0-7-7--7--7--7-------7
    
    e--------------------------------------------------------
    B--------------------------------------------------------
    G-11-9-9-7-7-9-9-7-7-7-7-7--0-0-5-0--0-0-5-0--0-0--------
    D--7-7-7-5-5-5-5-5-5-5-5-5--0-0-0-0--0-0-0-0--0-0--------
    A--7-7-7-5-5-5-5-5-5-5-5-5--0-0-0-0--0-0-0-0--0-0--------
    D--7-7-7-5-5-5-5-5-5-5-5-5--0-0-0-0--0-0-0-0--0-0--------
    
    Play six times with disortion
    
    C.
    
    e-0-0-0---5--5--0-0-0-x-x-----0-0-0-0-0-x-x--------------
    B-3-3-3---3--3--3-3-3-x-x-----0-0-0-0-0-x-x--------------
    G-2-2-2---2--2--2-2-2-x-x-7---7-7-7-7-7-x-x--------------
    D-0-0-0---0--0--0-0-0-x-x-7---7-7-7-7-7-x-x--------------
    A-0-0-0---0--0--0-0-0-x-x-5---5-5-5-5-5-x-x--------------
    D-0-0-0---0--0--0-0-0-x-x-5---5-5-5-5-5-x-x--------------
    
    Play one time with disortion
    
    D.
    
    e--------------------------------------------------------
    B--------------------------------------------------------
    G-7-7-7-7-7-7-7-7-7-7-7-7-7-7-7-7-x-x--------------------
    D-4-4-4-4-4-4-4-4-4-4-4-4-4-4-4-4-x-x--------------------
    A-4-4-4-4-4-4-4-4-4-4-4-4-4-4-4-4-x-x--------------------
    D-4-4-4-4-4-4-4-4-4-4-4-4-4-4-4-4-x-x--------------------
    
    e--------------------------------------------------------
    B-8-8-8-8-8-8-8-8-8-8-8-8-8-8-8-8-x-x--------------------
    G-7-7-7-7-7-7-7-7-7-7-7-7-7-7-7-7-x-x--------------------
    D-5-5-5-5-5-5-5-5-5-5-5-5-5-5-5-5-x-x--------------------
    A-5-5-5-5-5-5-5-5-5-5-5-5-5-5-5-5-x-x--------------------
    D-5-5-5-5-5-5-5-5-5-5-5-5-5-5-5-5-x-x--------------------
    
    e--------------------------------------------------------
    B--------------------------------------------------------
    G-7-7-7-7-7-7-7-7-7-7-7-7-7-7-7-7-x-x--------------------
    D-4-4-4-4-4-4-4-4-4-4-4-4-4-4-4-4-x-x--------------------
    A-4-4-4-4-4-4-4-4-4-4-4-4-4-4-4-4-x-x--------------------
    D-4-4-4-4-4-4-4-4-4-4-4-4-4-4-4-4-x-x--------------------
    
    e--------------------------------------------------------
    B-8-8-8-8-8-8-8/20-20-20-20-20-20------------------------
    G-7-7-7-7-7-7-7/19-19-19-19-19-19------------------------
    D-5-5-5-5-5-5-5/17-17-17-17-17-17------------------------
    A-5-5-5-5-5-5-5/17-17-17-17-17-17------------------------
    D-5-5-5-5-5-5-5/17-17-17-17-17-17------------------------
    
    Play one time with distortion
    
    E.
    (E.1)
    e-0---0-0--0-0-0-----------------------------------------
    B-3---3-2--2-2-3-----------------2-3-5p3p2-5-------------
    G-2---2-2--2-2-2-7---------------------------------------
    D-0---0-0--0-0-0-7-4-0---0--0-0--------------------------
    A-0---0-0--0-0-0-5-4-0---0--0-0--------------------------
    D-0---0-0--0-0-0-5-4-0---0--0-0--------------------------
    (E.2)
    e-0---0-0--0-0-0-----------------------------------------
    B-3---3-2--2-2-3-----------------------------------------
    G-2---2-2--2-2-2-7---------------------------------------
    D-0---0-0--0-0-0-7-4-0---0--0-0--------------------------
    A-0---0-0--0-0-0-5-4-0---0--0-0--4b----0-----------------
    D-0---0-0--0-0-0-5-4-0---0--0-0--------------------------
    (E.1)
    e-0---0-0--0-0-0-----------------------------------------
    B-3---3-2--2-2-3-----------------2-3-5p3p2-5-------------
    G-2---2-2--2-2-2-7---------------------------------------
    D-0---0-0--0-0-0-7-4-0---0--0-0--------------------------
    A-0---0-0--0-0-0-5-4-0---0--0-0--------------------------
    D-0---0-0--0-0-0-5-4-0---0--0-0--------------------------
    (E.2)
    e-0---0-0--0-0-0-----------------------------------------
    B-3---3-2--2-2-3-----------------------------------------
    G-2---2-2--2-2-2-7---------------------------------------
    D-0---0-0--0-0-0-7-4-0---0--0-0--------------------------
    A-0---0-0--0-0-0-5-4-0---0--0-0--------------------------
    D-0---0-0--0-0-0-5-4-0---0--0-0--------------------------
    
    Play C. six times with distortion
    
    Play D. one time with distortion
    
    Play E. one time with distortion
    
    Play B. two times with distortion
    
    Play one time with distortion
    
    e--------------------------------------------------------
    B--------------------------------------------------------
    G-----7-7-9-9-9/11---11-9-11-11h12-9-9-9-9-11-11-11p9p7-9
    D-0-0-0-0-0-0-0-------0-0--0--0----0-0-7-7--7--7--7-----7
    A-0-0-0-0-0-0-0-------0-0--0--0----0-0-7-7--7--7--7-----7
    D-0-0-0-0-0-0-0-------0-0--0--0----0-0-7-7--7--7--7-----7
    
    e--------------------------------------------------------
    B--------------------------------------------------------
    G-9-11-9-9-7-7-9-9-7-7-7-7-7-----------------------------
    D-7--7-7-7-5-5-5-5-5-5-5-5-5--0--0-5-4---0--0-5-4--------
    A-7--7-7-7-5-5-5-5-5-5-5-5-5--0--0-5-4---0--0-5-4--------
    D-7--7-7-7-5-5-5-5-5-5-5-5-5--0--0-5-4---0--0-5-4--------
    
    Play A. one time with out distortion
    
    Play this with out distortion
    
    e--------------------------------------------------------
    B--------------------------------------------------------
    G-----7-7-9-9-9/11---11-9-11-11h12-9-9-9-9-11-11-11p9p7-9
    D-0-0-0-0-0-0-0-------0-0--0--0----0-0-7-7--7--7--7-----7
    A-0-0-0-0-0-0-0-------0-0--0--0----0-0-7-7--7--7--7-----7
    D-0-0-0-0-0-0-0-------0-0--0--0----0-0-7-7--7--7--7-----7
    
    e--------------------------------------------------------
    B--------------------------------------------------------
    G-11-9-9-7-7-9-9-7-7-7-7-7-------------------------------
    D--7-7-7-5-5-5-5-5-5-5-5-5-------------------------------
    A--7-7-7-5-5-5-5-5-5-5-5-5-------------------------------
    D--7-7-7-5-5-5-5-5-5-5-5-5-------------------------------
    
    Play this one time with distortion
    
    e--------------------------------------------------------
    B--------------------------------------------------------
    G--------------------------------------------------------
    D-0-0-5-0--0-0-5-0--0-0----------------------------------
    A-0-0-5-0--0-0-5-0--0-0----------------------------------
    D-0-0-5-0--0-0-5-0--0-0----------------------------------
    
    Play E. one time with distortion
    
    Play E.1 with distortion three times
    
    Thank you for reading this was my first tab.
     

    Тональность:

    Нет текста!



    Назад
    Рекомендуем посмотреть другие песни исполнителя «Creed»:

    • Комментарии Facebook ()
    • Комментарии ВКонтакте



    Добавить в Избранное Браузера
    Сохранить здесь Очистить


    x

    0


    +
    -

    +
    -

    -

    Авторизация





    Зарегистрироваться

    M

    Дата и время

    • 03:30:05
       

    Социальные ссылки


    Наши приложения

    • Muzbank App Play Market
    • Muzbank Amazon App