MUZBANK



A Most Complete Bank Of Music Information

МУЗЫКАЛЬНО-ИНФОРМАЦИОННЫЙ БАНК








    CCreed • Stand Here With Me (аккорды и текст - chords & lyrics)


    240

    Print

    Видео «Stand Here With Me (Creed)»

    Видео клипы к песне подбираются автоматически сайтом youtube. Возможны некоторые несоответствия клипов песне.

    ↑ Спрятать рекламу ↑






     
    
    
    The intro is a little different than the one posted on the home page...
     
    ----------------------------------------------- 
    ----------------------------------------------- I dont know 
    ---6-7h-6-7h-6-7h-6-7h-11---7-9-12-12-11-7----- the last 
    ---------------------------0------------------- part of the
    -0--------------------------------------------- intro.
    ----------------------------------------------- 
     The distortion starts here.
    ----------------------------------------------- 
    ----------------------------------------------- I dont know
    ---6-7h-6-7h-6-7h-6-7h-11---7-9-14-12-11-7----- the last
    ---------------------------0------------------- part of the 
    -0--------------------------------------------- intro.
    
    Have a good time with the REAL intro!
     

    Тональность:

    Нашли ошибку?



    Назад
    Рекомендуем посмотреть другие песни исполнителя «Creed»:

    • Комменты Fb ()
    • Комменты ВК



    Добавить в Избранное Браузера
    Сохранить здесь Очистить


    x

    0


    +
    -

    +
    -

    -

    Авторизация





    Зарегистрироваться

    M

    Дата и время

    • 14:41:44
       

    Социальные ссылки


    Наши приложения

    • Muzbank App Play Market
    • Muzbank Amazon App