MUZBANK



A Most Complete Bank Of Music Information

МУЗЫКАЛЬНО-ИНФОРМАЦИОННЫЙ БАНК

Поиск по сайту







    CCreed • Torn (аккорды и текст - chords & lyrics)


    350

    Print

    Видео «Torn (Creed)»

    Видео клипы к песне подбираются автоматически сайтом youtube. Возможны некоторые несоответствия клипов песне.

    ↑ Спрятать рекламу ↑



    Download


     
    
    
    Torn-Creed
    My Own Prison
    
    Drop D:
    D A D G B E
    
    
    Intro:
    
    e---------------------------0-------------------------------0-----
    b-----------6~~~~~------------6-------------6~~~~-----------------
    g-----7p5-------------7p5-------5-----7p5------------7p5----------
    d-0-------0--------0------0-------0-------0-------0------0--------
    a-----------------------------------------------------------------
    d-----------------------------------------------------------------
    
    e------------------------------0----------------------------------
    b-6-------------6~~~~------------6------------6~~~6---6/8-8-8-8-8-
    g---5-----7p5------------7p5-------5----7p5---5---5---5/7-7-7-7-7-
    d-----0-------0-------0------0-------0------0-------0-------------
    a---------------------------------------------------0-------------
    d-----------------------------------------------------------------
    
    e------0------------------------0-------------------------------0-
    b--------------6~~-6--------------6-------------6---6-------------
    g--------7p5---5---5----5-7p5-------5---5-7p5---5---5---5-7p5-----
    d-0-------------------0-0-----------------------0-----------------
    a-0--0-------0--------0-0-----0-------0-------0-------0-------0---
    d-----------------------------------------------------------------
    
    e-------------------------------0---------------------------------
    b-6-------------6---6-------------6-------------6---6-6-6/8-8-8-8-
    g---5---5-7p5---5---5---5-7p5-------5---5-7p5---5---5-5-5/7-7-7-7-
    d---------------0---------------------0-------0-0-------------0-0-
    a-----0-------0-------0-------0-------0-------0---------------0---
    d-----------------------------------------------------------------
    
    Verses: FIg 1. x2
    
    e------------------------------0-------------------------------0--
    b--------------6---6---6---------6-------------6---6--------------
    g------7-7p5---5---5---5-7p5-------5---5-7p5---5---5---5-7p5------
    d----0-0-0-----0-----0---0---0-----------------------0------------
    a-0--0---0---0-----------0---0-------0---------------0-------0----
    d--------------------------------------------0---------------0----
    
    e-------------------------------0---------------------------------
    b-6-------------6---6---6---------6-------------6---6---6/8-8-8-8-
    g---5---5-7p5---5---5---5-7p5-------5---5-7p5---5---5-5-5/7-7-7-7-
    d---------------------0---------------0---0---------0-0-------0---
    a-----0---------------0-------0-----------0---0-------0-----------
    d-------------0---------------0---------------0-------------------
    
    Pre-Chorus: x2
    
    e-----------------------------------------------------------------
    b-----------------------------------------------------------------
    g-5------5----5----5--5-----------5------5----5----5--------5-----
    d-3------3----3----3--3---3-3-3-0-5------5----5----5--0-0-0-3-----
    a-3------3----3----3--3---3-3-3-0-3------3----3----3--0-0-0-3-----
    d-3------3----3----3--3---3-3-3-0---------------------0-0-0-3-----
                                                         pm----|
    
    e-----------------------------------------------------------------
    b-----------------------------------------------------------------
    g-----------------------------------------------------------------
    d-0---0-0-3p0-0-0---0-------------0---0-0-3---0-0-----------------
    a-0---0-0-3p0-0-0---0-3-4-5-0-3-4-0---0-0-3p0-0-0-3-4-5-0-5-4-3-0-
    d-0---0-0-3p0-0-0---0-------------0---0-0-3p0-0-0---------------0-
         pm--|   |-|                     |---| 
    
    Chorus: x2
    
    e-----------------------------------------------------------------
    b-----------------------------------------------------------------
    g-5---5-5-5---5-5---5--5--5-5-5---7---7-7-7---7-7---7--7--7-7-7---
    d-3---3-3-3---3-3-0-5--5--5-5-5-0-5---5-5-5---5-5-0-7--7--7-7-7-0-
    a-3---3-3-3---3-3-0-3--3--3-3-3-0-5---5-5-5---5-5-0-5--5--5-5-5-0-
    d-3---3-3-3---3-3-0-------------0-5---5-5-5---5-5-0-------------0-
    
    e-----------------------------------------------------------------
    b-----------------------------------------------------------------
    g10--101010--1010--10-10-101010---9---9-9-9-----------------------
    d-8---8-8-8---8-8--10-10-101010---7---7-7-7-------75-------------
    a-8---8-8-8---8-8-0-8--8--8-8-8-0-7---7-7-7---0-0-----7-53-------
    d-8---8-8-8---8-8-0---------------7---7-7-7---0-0-----------3-5br-
                                                pm---|
    
    play Fig 1. w/
    
    let ring
    e-----------------------------------------------------------------
    b-----------------------------------------------------------------
    g-----------------------------------------------------------------
    d-0---------------------------------------------------------------
    a-0---------------------------------------------------------------
    d-0---------------------------------------------------------------
    
    Interlude: 
                                                       change to 2/4
    e-----------------------------------------------------------------
    b-----------------------------------------------------------------
    g-----------------------------------------------------------------
    d-----------------------------------------------------------------
    a-----------------------6-6-----6-6-------------4~~~~~~~-5-4---0--
    d-0-0-10-10-9-9-0-0-6-7-----0-0-----7-7-0-0-4-5--------------5-0--
    pm---------------------|   |---|       |-------|
    
    e-----------------------------------------------------------------
    b-----------------------------------------------------------------
    g-----------------------------------------------------------------
    d---------3-3-3-----------3-3-3-0---------2-2-2-----------2-2-2-0-
    a---------------------------------2-------------------------------
    d-3-3-3-3-------3-3-3-3-3---------2-2-2-2-------2-2-2-2-2---------
    pm-------|       |-|             |-------|     |---------|
    
    Bridge: x3
    
    e-----------------------------------------------------------------
    b-----------------------------------------------------------------
    g--------------------------7---4---4-4--4-----4--4-----------4---
    d-3---3---3----3--3-0-0--0-5---2---2-2--2-----2--2-0-0-0-3---2---
    a-3---3---3----3--3-0-0--0-5---2---2-2--2-----2--2-0-0-0-3---2---
    d-3---3---3----3--3-0-0--0-5---2---2-2--2-----2--2-0-0-0-3---2---
    
                                                     change to 2/4
    e-----------------------------------------------------------------
    b-----------------------------------------------------------------
    g------5----4--------------8-------8--9----------6---7-6----------
    d-0----5----4----0----6-7--8--0-0--8--7--0--4-5--6---7-6-5-0------
    a-0----3----2----0----6-7--6--0-0--6--7--0--4-5--4---5-4-5-0------
    d-0--------------0----6-7-----0-0-----7--0--4-5----------5-0------
    
    then....
    
    e-----------------------------------------------------------------
    b-----------------------------------------------------------------
    g-------------------------------------------------------4-4---4-4-
    d-3---3-3--3--3-3---3-0-0--0-5----2---2-2--2---2-2---2-0-0---0-0-
    a-3---3-3--3--3-3---3-0-0--0-5----2---2-2--2---2-2---2-0-0---0-0-
    d-3---3-3--3--3-3---3-0-0--0-5----2---2-2--2---2-2---2-0-0---0-0-
    
    play Fig 1. w/
    
    let ring
    e-----------------------------------------------------------------
    b-----------------------------------------------------------------
    g-----------------------------------------------------7--7---7----
    d-0---------------------------------------------------x--x---x----
    a-0---------------------------------------------------5--5---5----
    d-0---------------------------------------------------------------
    
    let ring
    e-----------------------------------------------------------------
    b-----------------------------------------------------------------
    g-----------------------------------------------------------------
    d-0---------------------------------------------------------------
    a-0---------------------------------------------------------------
    d-0---------------------------------------------------------------
    
    Breakdown Chorus:
    
    e-----------------------------------------------------------------
    b---------------------------------------------------5-5-----------
    g-5---5-5-5---5-5-5-5--5--5-5-5/7-7---7-7-7---7-7-7-7-7--7-7-7-10-
    d-3---3-3-3---3-3-x-5--5--5-5-----5---5-5-5---5-5-x-7-7--7-7-0-0--
    a-3---3-3-3---3-3---3--3--3-3-----5---5-5-5---5-5---5-5--5-5-0-0--
    d-3---3-3-3---3-3-----------------5---5-5-5---5-5------------0-0--
    
    e-----------------------------------------------------------------
    b-----------------------------------------------------------------
    g10--101010--1010--1010-1010-----9---9-9-9---9-9-9-9-9---7-7-7-5--
    d-8---8-8-8---8-8-x1010-1010-0-0-7---7-7-7---7-7-7-7-7-0-0-5-5-0--
    a-8---8-8-8---8-8-x-8-8--8-8-0-0-7---7-7-7---7-7-7-7-7-0-0-5-5-0--
    d-8---8-8-8---8-8-0----------0-0-7---7-7-7---7-7-7-7-7-0-0-5-5-0--
    
    e-----------------------------------------------------------------
    b---------------------------------------------------5-5-----------
    g-5---5-5-5---5-5-5-5--5--5-5-5/7-7---7-7-7---7-7-7-7-7--7-7-7-10-
    d-3---3-3-3---3-3-x-5--5--5-5-----5---5-5-5---5-5-x-7-7--7-7-0-0--
    a-3---3-3-3---3-3---3--3--3-3-----5---5-5-5---5-5---5-5--5-5-0-0--
    d-3---3-3-3---3-3-----------------5---5-5-5---5-5------------0-0--
    
    e-----------------------------------------------------------------
    b-----------------------------------------------------------------
    g10--101010--1010--1010-1010-----9---9-9-9------------------------
    d-8---8-8-8---8-8-x1010-1010-0-0-7---7-7-7-------75--------------
    a-8---8-8-8---8-8-x-8-8--8-8-0-0-7---7-7-7-----------7-53--------
    d-8---8-8-8---8-8-0----------0-0-7---7-7-7---0-0-----------3-5br--
    
    Bridge: x3
    
    e-----------------------------------------------------------------
    b-----------------------------------------------------------------
    g--------------------------7---4---4-4--4-----4--4-----------4---
    d-3---3---3----3--3-0-0--0-5---2---2-2--2-----2--2-0-0-0-3---2---
    a-3---3---3----3--3-0-0--0-5---2---2-2--2-----2--2-0-0-0-3---2---
    d-3---3---3----3--3-0-0--0-5---2---2-2--2-----2--2-0-0-0-3---2---
    
                                                     change to 2/4
    e-----------------------------------------------------------------
    b-----------------------------------------------------------------
    g------5----4--------------8-------8--9----------6---7-6----------
    d-0----5----4----0----6-7--8--0-0--8--7--0--4-5--6---7-6-5-0------
    a-0----3----2----0----6-7--6--0-0--6--7--0--4-5--4---5-4-5-0------
    d-0--------------0----6-7-----0-0-----7--0--4-5----------5-0------
    
    then....
    
    e-----------------------------------------------------------------
    b-----------------------------------------------------------------
    g-------------------------------------------------------4-4---4-4-
    d-3---3-3--3--3-3---3-0-0--0-5----2---2-2--2---2-2---2-0-0---0-0-
    a-3---3-3--3--3-3---3-0-0--0-5----2---2-2--2---2-2---2-0-0---0-0-
    d-3---3-3--3--3-3---3-0-0--0-5----2---2-2--2---2-2---2-0-0---0-0-
    
    
    Outro:
    
    Gtr 1. 
    
    e-------------------------0-------------------------------0-------
    b-----------------------------------------------------------------
    g-----7p5-----7p5---7p5-----7p5----7p5-----7p5------7p5-----------
    d-0-------0-------0-----0-------0------0-------0--------0---------
    a-----------------------------------------------------------------
    d-----------------------------------------------------------------
    
    Gtr 2. 
    
    e--------------------------0------------------------------0-------
    b-----------6~~~~------------6------------6~~~~---6---------------
    g-----7p5------------7p5-------5----7p5-------------7p5-----------
    d-0-------0-------0------0-------0------0-------0-------0---------
    a-----------------------------------------------------------------
    d-----------------------------------------------------------------
    
    Gtr 1. x6
    
    e---------------------------------0---
    b-------------------------------------
    g-7p5-----7p5------7p5------7p5-------
    d-----0-------0--------0--------0-----
    a-------------------------------------
    d-------------------------------------
    
    Gtr 2. x6
    
    e---------------------------------0---
    b-6-------------6~~~~-----6-----------
    g---5-----7p5---------------7p5-------
    d-----0-------0---------0-------0-----
    a-------------------------------------
    d-------------------------------------
    
    Begin to Fade
    
    e-------0-------0-------0-------0-----
    b-6-------6-------6-------6-----------
    g-7p5-----7p5-----7p5-----7p5---------
    d-----0-------0-------0-------0-------
    a-------------------------------------
    d-------------------------------------
    
    
    that’s all
    
    trevor jones
    timmy91199@yahoo.ca
     

    Тональность:

    Нет текста!



    Назад
    Рекомендуем посмотреть другие песни исполнителя «Creed»:

    • Комментарии Facebook ()
    • Комментарии ВКонтакте



    Добавить в Избранное Браузера
    Сохранить здесь Очистить


    x

    0


    +
    -

    +
    -

    -

    Авторизация





    Зарегистрироваться

    M

    Дата и время

    • 23:39:09
       

    Социальные ссылки


    Наши приложения

    • Muzbank App Play Market
    • Muzbank Amazon App