MUZBANK



A Most Complete Bank Of Music Information

МУЗЫКАЛЬНО-ИНФОРМАЦИОННЫЙ БАНК

Поиск по сайту







    CCure • Lovesong (аккорды и текст - chords & lyrics)


    348

    Print

    Видео «Lovesong (Cure)»

    Видео клипы к песне подбираются автоматически сайтом youtube. Возможны некоторые несоответствия клипов песне.

    ↑ Спрятать рекламу ↑



    Download



     
    
    
    Author/Artist: The Cure
    Title: Love Song
    Album: Galore
    Transcribed by: Chief Ungamunga
    Email: twinfactor@mail.com
    
    
    Guitar:
    
    Chord Played on first beat of every fourth measure...(1, 5, 9 ...ect)
    |---7---|---0-----0-0-0-----|----------------------------|
    |---8---|---1/3h5-3-5-31---|----------------------------|
    |---9---|-2---------------2-|--2-4h5-5-4-2-4-4-2---------|
    |---7---|-------------------|--------------------5-3-3-3-|
    |-------|-------------------|----------------------------|
    |-------|-------------------|----------------------------|
    
    
    Starts on 5th measure, and then again throughout the song...
    |---0-----0-0-0-----|
    |---1/3h5-3-5-31---|
    |-2---------------2-|
    |-------------------|
    |-------------------|
    |-------------------|
    
    Guitar Solo
    |-7-7-7-7-----7-7----|7-7-7-7-----7-8/10|--------------------------|
    |---------8-------8--|--------8---------|8-8-8-8h10-10-------------|
    |--------------------|------------------|--------------9p7----7-9-7|
    |-----------7-------7|----------7-------|------------------10------|
    |--------------------|------------------|--------------------------|
    |--------------------|------------------|--------------------------|
                                                                                  
    |-----------------|
    |-----------------|
    |-----------------|
    |10-10-10-10-9-5-7|
    |-----------------|
    |-----------------|
    
    
    Synth tabbed for Guitar
    |----------------------------|
    |----------------------------|
    |--2-4h5-5-4-2-4-4-2---------|
    |--------------------5-3-3-3-|
    |----------------------------|
    |----------------------------|                                               
    
    
    Verse
    Bass Line w/ chords...
      Am            G              F             E
    |-------------|---------------|-------------|---------------|
    |-------------|---------------|-------------|---------------|
    |-------------|---------------|-------------|---------------|
    |-------------|---------------|-------------|---------------|
    |-------3-2-0-|---------2---3-|-------3-2-0-|---------2---3-|
    |-5-5-5-------|-3-3-3-3---3---|-1-1-1-------|-0-0-0-0---0---|
    
    Chorus
    Bass Line w/ chords...
      F         G        Am         C
    |---------|---------|---------|---------|
    |---------|---------|---------|---------|
    |---------|---------|---------|---------|
    |---------|---------|---------|---------|
    |---------|---------|---------|-3-3-3-3-|
    |-1-1-1-1-|-3-3-3-3-|-5-5-5-5-|---------|
     

    Тональность:

    Нет текста!



    Назад
    Рекомендуем посмотреть другие песни исполнителя «Cure»:

    • Комментарии Facebook ()
    • Комментарии ВКонтакте



    Добавить в Избранное Браузера
    Сохранить здесь Очистить


    x

    0


    +
    -

    +
    -

    -

    Авторизация





    Зарегистрироваться

    M

    Дата и время

    • 10:10:47
       

    Социальные ссылки


    Наши приложения

    • Muzbank App Play Market
    • Muzbank Amazon App