MUZBANK



A Most Complete Bank Of Music Information

МУЗЫКАЛЬНО-ИНФОРМАЦИОННЫЙ БАНК

Поиск по сайту







    DDanzig • Killer Wolf (аккорды и текст - chords & lyrics)


    313

    Print

    Видео «Killer Wolf (Danzig)»

    Видео клипы к песне подбираются автоматически сайтом youtube. Возможны некоторые несоответствия клипов песне.

    ↑ Спрятать рекламу ↑



    Download


     
    
    
    KILLER WOLF
    ===========
    transcription: Ryq
    solo tab:      Liam Wolfen Cullen
    
    Note: This song is played with triplet eights, giving the song a 
          shuffling rhythm.
    
      verse riff:
    E|---------------------------------|---------------------------------|
    B|---------------------------------|---------------------------------|
    G|-0---0---3--2----0---0---3--2----|-0---0---3--2----3---------------|
    D|-0---0---0--0----0---0---0--0----|-0---0---0--0----3-------5-------|
    A|---------------------------------|-----------------1-------5-------|
    E+---------------------------------|-------------------------3-------+
     | pm-->           pm-->             pm-->                           |
     |                                                                   |
    G+---------------------------------|---------------------------------+
    D|---------------------------------|---------------------------------|
    A|---------------------------------|-----------------1---------------|
    E|-3---3---3---3---3---3---3---3---|-3---3---3---3-----------3-------|
    
    
      bass riff during solo:
    G|---------------------------------|---------------------------------|
    D|---------------------------------|---------------------------------|
    A|-------1-1-----1-1-----1-1-----1-|-------1-1-----1-1---------------|
    E|-1-3-3-----3-3-----3-3-----3-3---|-1-3-3-----3-3-----------3-------|
    
    
     drums...
     G F A# D (2x)
     verse riff (2x)
     D#
     verse riff (first measure only)
     D#
     G F A# D (2x)
     verse riff (2x)
     D#
     verse riff (first measure only)
     D#
     G F A# D (4x)
     bass riff (2x) w/guitar solo
     D#
     verse riff (first measure only)
     D#
     G F A# D (4x)
     G F A# D (4x)  w/outro solo
    
      solo:
    E|---------------------------------------------------------
    B|---------------------------------------------------------
    G|---------------------------------------------------------
    D|-------5b--7-5-------------------------------------------
    A|--5b---5b-----7-6-5-------------------------3-3-5-3-5-3--
    E|-------------------8-6-3--3h6h3---3-6-6-3-6--------------
    
    E|----------------------------------------------------------
    B|-----------------6-------------------13ah----13ah----13ah-
    G|-----------------5b--3/12-(12)b--12------12------12------
    D|--3-3-5-5-3-5-3--------/12--------------------------------
    A|----------------------------------------------------------
    E|----------------------------------------------------------
    
    E|-------------------------------------------------------------
    B|-----13ah----13ah----11ah----11ah----11ah--------------------
    G|--12------12------10------10------10----------------8-10-10b-
    D|-----------------------------------------------8-10----------
    A|-------------------------------------------/10---------------
    E|-------------------------------------------------------------
    
    E|------------/15----15----15----15----15----15-----15----13-----
    B|------11---3/15-15----15----15----15----15-----15----13-13-----
    G|-10b--10b--------------------------------------------------15--
    D|---------------------------------------------------------------
    A|---------------------------------------------------------------
    E|---------------------------------------------------------------
    
    E|--------------------------|
    B|--------------------------|
    G|--15--17--15--17-/-24~~~--|
    D|--------------------------|
    A|--------------------------|
    E|--------------------------|
    
      outro solo:
    E|------------------------------------|
    B|--6---------------------------------|
    G|--5b--5p3---------------------------|
    D|----------5----5--3-----------------|
    A|---------------------5--4--3--------|
    E|------------------------------6--3--|
     

    Тональность:

    Нет текста!



    Назад
    Рекомендуем посмотреть другие песни исполнителя «Danzig»:

    • Комментарии Facebook ()
    • Комментарии ВКонтакте



    Добавить в Избранное Браузера
    Сохранить здесь Очистить


    x

    0


    +
    -

    +
    -

    -

    Авторизация





    Зарегистрироваться

    M

    Дата и время

    • 02:59:23
       

    Социальные ссылки


    Наши приложения

    • Muzbank App Play Market
    • Muzbank Amazon App