MUZBANK



A Most Complete Bank Of Music Information

МУЗЫКАЛЬНО-ИНФОРМАЦИОННЫЙ БАНК

Поиск по сайту







    DDanzig • Tired Of Being Alive (аккорды и текст - chords & lyrics)


    316

    Print

    Видео «Tired Of Being Alive (Danzig)»

    Видео клипы к песне подбираются автоматически сайтом youtube. Возможны некоторые несоответствия клипов песне.

    ↑ Спрятать рекламу ↑



    Download


     
    
    
    TIRED OF BEING ALIVE
    ====================
    transcription: Mike Inzerillo, Aaron Pacitti, Liam Wolfen Cullen
    
    Intro:
    E|----------------------------------------------------------
    B|----------10ah----10ah----10ah------------------------10--
    G|--/9b--9b------9b------9b------9b--(9b)h7------7--9b--9b--
    D|--------------------------------------9--------7--9b------
    A|-------------------------------------------/9-------------
    E|----------------------------------------------------------
    
    E|-------------|
    B|-------------|
    G|--(9b)h7-----|
    D|----------9--|
    A|-------------|
    E|-------------|
    
    Verse:
         A B B B  D  DD  A B B B  E  D   A B B B  D DD  D  A
    E|--------------------------------------------------------
    B|--------------------------------------------------------
    G|------------7--77-----------9--7------------7-77--7-----
    D|---7/9-9-9--7--77--7/9-9-9--9--7---7/9-9-9--7-77--7--7--
    A|---7/9-9-9--5--55--7/9-9-9--7--5---7/9-9-9--5-55--5--7--
    E|---5/7-7-7---------5/7-7-7---------5/7-7-7--------5--5--
    
    Chorus:
         F#  G   D   A     B   G   D   F# 
    E|-----------------------------------------
    B|-----------------------------------------
    G|-----------7---------4-------7-----------
    D|---4---5---7---7-----4---5---7---4-------
    A|---4---5---5---7-----2---5---5---4-------
    E|---2---3-------5---------3-------2-------
    
    -songflow-
     Intro 
     Verse  (6x)
     Chorus (2x)
     Verse  (6x)
     Chorus (2x)
     Verse  (4x) w/solo
     Chorus (2x)
     Verse  (2x)
     Verse  (4x; faster)
     B
     

    Тональность:

    Нет текста!



    Назад
    Рекомендуем посмотреть другие песни исполнителя «Danzig»:

    • Комментарии Facebook ()
    • Комментарии ВКонтакте



    Добавить в Избранное Браузера
    Сохранить здесь Очистить


    x

    0


    +
    -

    +
    -

    -

    Авторизация





    Зарегистрироваться

    M

    Дата и время

    • 21:06:19
       

    Социальные ссылки


    Наши приложения

    • Muzbank App Play Market
    • Muzbank Amazon App