MUZBANK



A Most Complete Bank Of Music Information

МУЗЫКАЛЬНО-ИНФОРМАЦИОННЫЙ БАНК

Поиск по сайту







    DDanzig • When Death Had No Name (аккорды и текст - chords & lyrics)


    267

    Print

    Видео «When Death Had No Name (Danzig)»

    Видео клипы к песне подбираются автоматически сайтом youtube. Возможны некоторые несоответствия клипов песне.

    ↑ Спрятать рекламу ↑



    Download


     
    
    
    Song: When Death Had No Name
    Artist: Danzig
    Album: Dirty Black Summer single
    Tabbed by: Kevan (amidemn138@aol.com)
    
    Tune 1 half step down
    
    beginning:
    Gb---------------------
    Db---------------------
    Ab---------------------
    Eb--0--0-0--2--2-2-3-2-   repeat
    
    verse:
    Gb----------------------------
    Db------6-----6-----6-------11
    Ab----------------------------
    Eb--5-5---7-7---8-8---10-10---
    
    repeat beginning
    
    Gb-----------------------------------
    Db-----------------------------------
    Ab-----------2-2-2-2--etc.-----------
    Eb---3-3-3-3--etc.-------5-5-5-5--etc.
    
    Fast part
    
    Gb---------------------------------------------------
    Db-------------------------4-4--6--------------------
    Ab--6-6-6-6-6-6-6-6-6-6-6-------------------------4-4
    Eb---------------------------------5-5--7-7--8-8-----
    
    ending
    
    Gb------------------------------------------------
    Db------------------------------------------------
    Ab--4-4-4-4-4-4-4-4--2-2-2-2----------4-4-4-4-etc.
    Eb----------------------------5-5-5-5-------------
    
    Gb-----------------
    Db-----------------
    Ab--7-7-7-7--------
    Eb----------7-7-7-7
     

    Тональность:

    Нет текста!



    Назад
    Рекомендуем посмотреть другие песни исполнителя «Danzig»:

    • Комментарии Facebook ()
    • Комментарии ВКонтакте



    Добавить в Избранное Браузера
    Сохранить здесь Очистить


    x

    0


    +
    -

    +
    -

    -

    Авторизация





    Зарегистрироваться

    M

    Дата и время

    • 22:26:49
       

    Социальные ссылки


    Наши приложения

    • Muzbank App Play Market
    • Muzbank Amazon App