MUZBANK



A Most Complete Bank Of Music Information

МУЗЫКАЛЬНО-ИНФОРМАЦИОННЫЙ БАНК

Поиск по сайту







    DDark Funeral • The Black Winged Horde (аккорды и текст - chords & lyrics)


    314

    Print

    Видео «The Black Winged Horde (Dark Funeral)»

    Видео клипы к песне подбираются автоматически сайтом youtube. Возможны некоторые несоответствия клипов песне.

    ↑ Спрятать рекламу ↑



    Download


     Tuning : 1 and half down
    
    *** time - 0:00
    Part_A
      Repeat it 2 times.
    #||---7~------------|----------------|--3~------------|--3~----2~------|
    #||---8~------------|----------------|--4~------------|--4~----3~------|
    #||o--9~------------|-----o-/--------|--5~------------|--5~----4~------|
    #||o--9~------------|------/-o-------|--5~------------|--5~----4~------|
    #||-----------------|----------------|----------------|----------------|
    #||-----------------|----------------|----------------|----------------|
          1  2  3  4       1  2  3  4       1  2  3  4       1  2  3  4     
    
    
    |--7~------------|----------------|--3~------------|--6~-------------||#
    |--8~------------|----------------|--4~------------|--7~-------------||#
    |--9~------------|-----o-/--------|--5~------------|--8~------------o||#
    |--9~------------|------/-o-------|--5~------------|--8~------------o||#
    |----------------|----------------|----------------|-----------------||#
    |----------------|----------------|----------------|-----------------||#
       1  2  3  4       1  2  3  4       1  2  3  4       1  2  3  4   (End of Part_A)
    
    
    
    
    *** time - 0:17
    Part_B
      Repeat it 4 times.
    #||-----------------|----------------|----------------|----------------|
    #||---5~------------|----------------|----------------|----------------|
    #||o--------4~------|--------4~------|--3~------------|----------------|
    #||o----------------|--5~------------|--------4~------|--1~------------|
    #||-----------------|----------------|----------------|--------1~------|
    #||-----------------|----------------|----------------|----------------|
          1  2  3  4       1  2  3  4       1  2  3  4       1  2  3  4     
    
    
    |----------------|----------------|----------------|-----------------||#
    |--7~------------|----------------|----------------|-----------------||#
    |--------6~------|--------6~------|----------------|----------------o||#
    |----------------|--7~------------|--6~------------|----------------o||#
    |----------------|----------------|--------7~------|--4~-------------||#
    |----------------|----------------|----------------|--------4~-------||#
       1  2  3  4       1  2  3  4       1  2  3  4       1  2  3  4   (End of Part_B)
    
    
    
    
    *** time - 0:51
    Part_C
      Repeat it 4 times.
    #||---7~------------|----------------|----------------|----------------|
    #||---8~------------|----------------|----------------|----------------|
    #||o--9~------------|-----o-/--------|--------------o-//---------------|
    #||o--9~------------|------/-o-------|---------------//-o--------------|
    #||-----------------|----------------|----------------|----------------|
    #||-----------------|----------------|----------------|----------------|
          1  2  3  4       1  2  3  4       1  2  3  4       1  2  3  4
    
    
     _______________
    |1.3.
    |--8~------------|----------------|--8~------------|-----------------||
    |--8~------------|----------------|--9~------------|-----------------||
    |--10~-----------|-----o-/--------|--10~-----------|-----o-/--------o||
    |--10~-----------|------/-o-------|--10~-----------|------/-o-------o||
    |----------------|----------------|----------------|-----------------||
    |----------------|----------------|----------------|-----------------||
       1  2  3  4       1  2  3  4       1  2  3  4       1  2  3  4
    
    
     _______________
    |2.4.
    |--6~------------|----------------|--6~------------|-----------------||#
    |--6~------------|----------------|--7~------------|-----------------||#
    |--8~------------|-----o-/--------|--8~------------|-----o-/--------o||#
    |--8~------------|------/-o-------|--8~------------|------/-o-------o||#
    |----------------|----------------|----------------|-----------------||#
    |----------------|----------------|----------------|-----------------||#
       1  2  3  4       1  2  3  4       1  2  3  4       1  2  3  4   (End of Part_C)
    
    
    
    
    *** time - 1:25
    Part_D
      Repeat it 2 times.
    #||-----------------|----------------|----------------|----------------|
    #||-----------------|--------8~------|--7~------------|----------------|
    #||o----------------|--9~------------|--------7~------|----------------|
    #||o--------9~------|----------------|----------------|--9~------------|
    #||---7~------------|----------------|----------------|--------9~------|
    #||-----------------|----------------|----------------|----------------|
          1  2  3  4       1  2  3  4       1  2  3  4       1  2  3  4     
    
    
    |----------------|----------------|----------------|----------------|
    |----------------|----------------|----------------|----------------|
    |----------------|-------------o-////--------------|----------------|
    |----------------|--------------////-o-------------|----------------|
    |----------------|----------------|----------------|----------------|
    |----------------|----------------|----------------|----------------|
       1  2  3  4       1  2  3  4       1  2  3  4       1  2  3  4     
    
    
    |----------------|----------------|----------------|----------------|
    |----------------|----------------|----------------|----------------|
    |----------------|--------5~------|--4~------------|----------------|
    |----------------|--7~------------|--------4~------|----------------|
    |--------7~------|----------------|----------------|--5~------------|
    |--5~------------|----------------|----------------|--------7~------|
       1  2  3  4       1  2  3  4       1  2  3  4       1  2  3  4
    
    
    |----------------|----------------|----------------|----------------|#
    |----------------|----------------|----------------|----------------|#
    |----------------|-------------o-////--------------|----------------|#
    |----------------|--------------////-o-------------|----------------|#
    |----------------|----------------|----------------|----------------|#
    |----------------|----------------|----------------|----------------|#
       1  2  3  4       1  2  3  4       1  2  3  4       1  2  3  4   (End of Part_D)
    
    
    
    
    *** time - 2:00
    Play Part_C
      Repeat it 2 times.
    
    
    
    
    *** time - 2:16
    Play Part_B
      Repeat it 4 times.
    
    
    
    
    *** time - 2:51
    Part_E
      Repeat it 2 times.
    #||-----------------|--2~------------|--1~------------|-----------------||#
    #||-----------------|--2~------------|--1~------------|-----------------||#
    #||o----------------|--2~------------|--1~------------|-----o-/--------o||#
    #||o--4~------------|--4~------------|--3~------------|------/-o-------o||#
    #||---4~------------|--4~------------|--3~------------|-----------------||#
    #||---2~------------|----------------|----------------|-----------------||#
          1  2  3  4       1  2  3  4    |  1  2  3  4    |  1  2  3  4     ||
                                         |                |                 ||
                                         |                |                 ||
                                         |-----------6~---|-----------------||#
                                         |--6~-8~-9~------|-----------------||#
                                         |----------------|-----o-/--------o||#
                                         |----------------|------/-o-------o||#
                                         |----------------|-----------------||#
                                         |----------------|-----------------||#
                                            1  2  3  4       1  2  3  4    (End of Part_E)
    
    
    
    
    *** time - 2:59
    Part_F
    |--5~------------|----------------|--4~------------|----------------|
    |--6~------------|----------------|--5~------------|----------------|
    |--7~------------|-----o-/--------|--6~------------|-----o-/--------|
    |--7~------------|------/-o-------|--6~------------|------/-o-------|
    |----------------|----------------|----------------|----------------|
    |----------------|----------------|----------------|----------------|
       1  2  3  4       1  2  3  4       1  2  3  4       1  2  3  4
    
    
    |--5~------------|----------------|--4~------------|----------------|#
    |--6~------------|----------------|--5~----5~------|----------------|#
    |--7~------------|-----o-/--------|--6~------------|--6~------------|#
    |--7~------------|------/-o-------|--6~------------|--------6~------|#
    |----------------|----------------|----------------|----------------|#
    |----------------|----------------|----------------|----------------|#
       1  2  3  4       1  2  3  4       1  2  3  4       1  2  3  4   (End of Part_F)
    
    
    
    
    *** time - 3:08
    Part_G
      Repeaqt it 2 times.
    // Half Tempo
    #||---------------------------------------|-------------------------------------|
    #||----------------10---9--------9---10---|--9---8------------------------------|
    #||o-----------11-----------11------------|-----------10----------------10------|
    #||o------11------------------------------|---------------10-------10-------10--|
    #||---9-----------------------------------|--------------------8----------------|
    #||---------------------------------------|-------------------------------------|
          1        2        3        4           1        2        3        4
    
    
    |--------------------------------------|--------------------------------------|
    |---------------10---9--------9---10---|--9---8h9p8---------------------------|
    |-----------11-----------11------------|------|=|=|-10----------------10------|
    |------11------------------------------|--------3-------10-------10-------10--|
    |--9-----------------------------------|---------------------8----------------|
    |--------------------------------------|--------------------------------------|
       1        2        3        4           1         2        3        4
    
    
    |--------------------------------------|-------------------------------------|
    |---------------6----5--------5---6----|--5---4------------------------------|
    |-----------7------------7-------------|-----------6-----------------6-------|
    |------7-------------------------------|---------------6--------6--------6---|
    |--5-----------------------------------|--------------------4----------------|
    |--------------------------------------|-------------------------------------|
       1        2        3        4           1        2        3        4
    
    
    |--------------------------------------|---------------------------------------||#
    |---------------6----5--------5---6----|--5---4h5p4----------------------------||#
    |-----------7------------7-------------|------|=|=|-6-----------------6-------o||#
    |------7-------------------------------|--------3-------6--------6--------6---o||#
    |--5-----------------------------------|---------------------4-----------------||#
    |--------------------------------------|---------------------------------------||#
       1        2        3        4           1         2        3        4   (End of Part_G)
    
    
    
    *** time - 3:41
    Play Part_A
      Repeat it 2 times.
    
    
    *** time - 3:58
    Play Part_D
      Repeat it 2 times.
    
    
    
    
    *** time - 4:33
    Part_H
    #|--7-------------|#
    #|--8-------------|#
    #|--9-------------|#
    #|--9-------------|#
    #|----------------|#
    #|----------------|#
                 (End of Part_H)
    
    
    
    === END === 

    Тональность:

    Нет текста!



    Назад
    Рекомендуем посмотреть другие песни исполнителя «Dark Funeral»:

    • Комментарии Facebook ()
    • Комментарии ВКонтакте



    Добавить в Избранное Браузера
    Сохранить здесь Очистить


    x

    0


    +
    -

    +
    -

    -

    Авторизация





    Зарегистрироваться

    M

    Дата и время

    • 17:32:58
       

    Социальные ссылки


    Наши приложения

    • Muzbank App Play Market
    • Muzbank Amazon App