MUZBANK



A Most Complete Bank Of Music Information

МУЗЫКАЛЬНО-ИНФОРМАЦИОННЫЙ БАНК

Поиск по сайту







    DDark Funeral • Vobiscum Satanas (аккорды и текст - chords & lyrics)


    249

    Print

    Видео «Vobiscum Satanas (Dark Funeral)»

    Видео клипы к песне подбираются автоматически сайтом youtube. Возможны некоторые несоответствия клипов песне.

    ↑ Спрятать рекламу ↑



    Download


     
    
    
    Riff1 
    
     A            F 
    -------------| 
    -------------| 
    -------------| 
    |-7-9-10-9---------------| 
    --8-10-11-10-| 
    -------------| 
    
    
    
    Riff2 
    ----------------------| 
    ----------------------| 
    ----------------------| 
    ------6-6-------------| 
    |-0-0-0-0-0-0-0-0-----7-7-4-4-0-0-| 
    ----------------------| 
    
    
    
    ----------------------| 
    ----------------------| 
    ------5-5-------------| 
    ----------7-7-3-3-2-2-| 
    |-0-0-0-0-0-0-0-0-----------------| 
    ----------------------| 
    
    
    
    Riff3 
    A           A# 
    ---------| 
    ---------| 
    |---9-10-12---10-9-7-| 
    |-7---------8--------| 
    ---------| 
    ---------| 
    
    
    
    --------------------| 
    --------------------| 
    --------------------| 
    --------------------| 
    |-7---6---7---3---7---6---10--9-| 
    |-5---4---5---1---5---4---8---7-|
     

    Тональность:

    Нет текста!



    Назад
    Рекомендуем посмотреть другие песни исполнителя «Dark Funeral»:

    • Комментарии Facebook ()
    • Комментарии ВКонтакте



    Добавить в Избранное Браузера
    Сохранить здесь Очистить


    x

    0


    +
    -

    +
    -

    -

    Авторизация





    Зарегистрироваться

    M

    Дата и время

    • 02:59:42
       

    Социальные ссылки


    Наши приложения

    • Muzbank App Play Market
    • Muzbank Amazon App