MUZBANK



A Most Complete Bank Of Music Information

МУЗЫКАЛЬНО-ИНФОРМАЦИОННЫЙ БАНК

Поиск по сайту







    DDark Tranquillity • The Emptiness From Which I Fed (аккорды и текст - chords & lyrics)


    213

    Print

    Видео «The Emptiness From Which I Fed (Dark Tranquillity)»

    Видео клипы к песне подбираются автоматически сайтом youtube. Возможны некоторые несоответствия клипов песне.

    ↑ Спрятать рекламу ↑



    Download


     
    
    
    Intro Riff (after feedback)
    
    ---------------------------|
    ---------------------------|
    ---------------------------| Guit 1  (Guit 2 continues
    ||-9-999-9-999-------------------------------------|          feedback)
    ||-7-777-7-777-9-999-9-999-11---11-12-11---11-12-11|
    |--7-777-7-777-9-999--------999--------|
    
    
    ----------------------------------------------------|
    ----------------------------------------------------|
    ----------------------------------------------------|Guit 1
    ------9999----------------11-9--------------11-9----|
    |-12-121212-11-12-----12-11111111--12------11111111---12----11--|
    ----------------------------------------------------|
    |
    ----------------------------------------------------|
    ----------------------------------------------------|
    ----------------------------------------------------| Guit 2
    --------6----------------6-7-6--6-----------6-7-6-6-|
    |-7777777766666677664---4444----------------4--4444-----------4-|
    ----------------------------------------------------|
    
     second time
                                                              2 times
    -----------------------------|
    
    -----------------------------|
    -----------------------------| Guit 1
    ------p----------------------|
    ||-7-777-7-777-9-999-9-999--12-11-|-----111111-12121212-11111111-|
    ||-5-555-5-555-7-777-7-777--9-----|-9999-------------------------|
    ||
    -----------------------------------------|
    -----------------------------------------|
    -----------------------------------------| Guit 2
    ||-9-999-9-999-8-888-8-888--9-------8-------6---676-----6---676--| (approx
    ||-7-777-7-777-6-666-6-666--7-------6-------4---------4----------|  timing)
    -----------------------------------------|
    
    
    --------------------------------|
    --------------------------------|
    --------------------------------| Guit 1
    ------9----------11-9-----11-9--|
    |-12-121212-11-12---12-11--12---------11-9--|
    --------------------------11-9--|
    | 
    --------------------------------|
    --------------------------------|
    --------------------------------| Guit 2
    --------6--676-6--676-6---------|
    |-7777777766666677664------4------4---------|
    --------------------------------|
     
    
    Riff 1 
    
    --------------------------------------------------|
    --------------------------------------------------|
    ||-6------66666666-4----------------------------------------------4-666666|
    ||-6-----------------7-6-666666666-7-6-4-444444444------------6-7---------|
    ||-4-4444------------------------------------------7-6-444444-------------|
    --------------------------------------------------|
    
    
    ---------------------------------------------------|
    |-55555555-4-5-7-5-4-------------------------------------------|
    ---------5-------------------------------------4-6-|
    -----------6-666666-7-6-4-444444-----------6-7-----|
    ----------------------------------7-6-4444---------|
    ---------------------------------------------------|
    
    
      Riff 2                                           ********** /
                                                                h /                
    |-4-------------------------------------h---h--5-4|
    |5-4-5-54-----------4-4-5-54---------4-4-5-5-7----|
    ||-------6-6-------------------6-6-------------6--------------|
    ---7-7---------------6----------------|
    ||-4-444------------------------------------------------------|
    |---------5-555-------------4-444-----------------|
    
    
    1st time
    |--5-5-7-7-4~---------|
    -44-5-4---|
    --------6-|
    ----------|
    ----------|
    ----------|
    
    
    2nd time
    |-5-57-7---|
    |
    |
    |
    |
    |
    
    
      Riff 3
    -----------------------------------------------------
    -----------------------------------------------------
    --------4444444444----------66666666---------44------
    ||---4-6-777777766776666666-6-7-----------7777777666--------666666-77--776677
    ||-4-------------------------------------------------------------------------
    -----------------------------------------------------
    ||
    -----------------------------------------------------
    ------------5-4-555--------------555444--------------
    --------4444-------------66------------------44664466
    ||---4-6-777444446-7-66-----6677-----------777766--444444------666677--------
    ||-4-------------------74444-------------------------------------------------
    -----------------------------------------------------
    
    ---------------|
    ---------------|
    4--------------| Guit 1
    --7-4--4-6-----|
    ------7----4~--|
    ---------------|
    
    ---------------|
    4--------------|
    --6-4--4-6-----| Guit 2
    ------7--------|
    -----------4~--|
    ---------------|
    
    
    
      Riff 3
    -----------------------------------------------------
    -----------------------------------------------------
    -----------------------------------------------------
    --------4444444444----------66666666---------44------
    ||---4-6-777777766776666666-6-7-----------7777777666--------666666-77--776677
    ||-4-------------------------------------------------------------------------
    ||
    -----------------------------------------------------
    -----------------------------------------------------
    ------------4-3-444--------------444333--------------
    --------4444-------------66------------------44664466
    ||---4-6-777444446-7-66-----6677-----------777766--444444------666677--------
    ||-4-------------------74444-------------------------------------------------
    
    
    ---------------|
    ---------------|
    ---------------|
    4--------------| Guit 1
    --7-4--4-6-4~--|
    ------7--------|
    
    ---------------|
    ---------------|
    4--------------|
    --6-4--4-6-----| Guit 2
    ------7----4~--|
    ---------------|
    
    
    
    first solo with spoken voice
    ------------------------|
    ------------------------|
    ------------------------|Guit 1
    ||-6-4---4--6-4---4-6-|----4------------4-------------------|
    ||-----7--------7-----|------7-6-4--6-7---7-6h7p6|---4-2-1~/2-2/4-4/6-6-|
    |---------|-7------------------------|-2--------------------|
    ||
    ||
    ------------------------|
    ------------------------|
    ||-6-------6----------|-6-----------------------------------|Guit2
    ||-6-hold--6-hold-----|-9------------------------|-4--------------------|
    ||-4-------4----------|-9--hold------------------|-4--hold--------------|
    |---------|-7------------------------|-2--------------------|
    
        Guit1
    ----|--p----p----------|--p----p-------------------|
    ----|-4-5--4-5---------|-6-7--6-7------------------|
    ----|----6----6~/8-8/9/11---8-----8~/10-10/11-11/13| 
    ||-6-8-8/9-8-6-8-8/9-8-6-4-6-----------------------|
    ---------------------------|
    ---------------------------|
    ||
    ||  Guit 2
    --------------------------|
    --------------------------|
    ----|-6-------------------------------| 
    ||-6------------------------|-6----------------|-9------------------------|
    ||-6------------------------|-4----------------|-9------------------------|
    ||-4-------------------------------|-7------------------------|
    
    
    ||--p------p----11-12-11-9-11-14-12p11h12------------------------|
    ||-9-10---9-10----------------14~-14-12h14p12-10-7/9-|
    ||-----11-----11-------------------------------------|
    -----------------------------|
    -----------------------------|
    -----------------------------|
    ||
    -----------------------------|
    -----------------------------|
    -----------------------------|
    ||-4-----------------------|-6-----------------------------------|
    ||-4-----------------------|-6-----------------------------------|
    ||-2-----------------------|-4-----------------------------------|
    
    
    Riff 1
    Riff 2
    Riff 3
    
    
      Riff 4 (classical part)
                         2 times
    -----------------------------|
    -----------------------------|
    ||-1-----1-----2-----4-----|-4-----4-----6-----8-----|-6-----6-----4----2----|
    ||---2-----2-----2-----2---|---4-----4-----4-----4---|---4-----4-----4----4--|
    ||-----4-----4-----4-----4-|-----6-----6-----6-----6-|-----6-----6-----6----6|
    -----------------------------|
    ||Guit 2 (only the 2nd time)
    -----------------------------|
    -----------------------------|
    ||-6-----------------------|-6-6-6-6-6-6-6-6-6-6-6-6-|-6-6666-6666-6666-6-6-6|
    ||-6-hold------------------|-6-6-6-6-6-6-6-6-6-6-6-6-|-6-6666-6666-6666-6-6-6|
    ||-4-----------------------|-4-4-4-4-4-4-4-4-4-4-4-4-|-4-4444-4444-4444-4-4-4|
    -----------------------------|
    
    
      Riff 5(not sure at all!) 
                        2 times
    ----------------------------|
    -----------h----------------|
    ---|-4-----4-----6-----8~-|-6-----6-----4-----------|
    ||-6-----6-----7-----9------------------------7-----|
    ||--4444--4444--4444--4444-|--6666--6666--6666----|--4444--4444--4444--4444-|
    ----------------------------|
    
    it seems that the classical guitar continues under this riff
    
    repeat riff 5
    
      Riff 6
    -----------|
    -----------|
    |--44444444--|-------6-4--------6-4| Guit 1
    ||-777777776677--------77|6666-7-----6666-7----|
    -----------|
    -----------|
    ||
    -----------|
    -----------|
    -|-------6-4--------6-4| Guit 2
    -|66-6-7-----66-6-7----|
    ||-7777777766666666777666|44---------44--------|
    -----------|
    
      Riff 6
    -----------------------|
    -----------------------|
    -----------------------|
    ||-6666666-6--------------6666666-6------------|
    ||-4444444-4-777-7-999-9--4444444-4-777-7-999-9|
    |555-5-777-7------------555-5-777-7|
    
      Riff 7                                                |1
    --------------------------------|----------|
    --------------------------------|----------|
    ---4---4-6-4--------------------|----------|
    ||-6-----6-4-6-7-6-4-7-------7-------7-6-----6-4-6-7-6-4|----------|
    ||-4-444-------------4-444-------------4-444------------|-777777-9-|
    --------------------------------|-555555-7-|
    
     |2,3       |4 (under solo)
    |-|
    |-|
    ||----4----6--|
    ||-222--444-|-777-7-777-7-|
    ||----------|-555-5-777-7-|
    |-|
    
    then always under solo
    -------------------------------------------|
    -------------------------------------------|
    -------------------------------------------|
    ---4---4-6-4-------------------------------|
    ||-6-----6-4-6-7-6-4-7-------7-------7-6-----6-4-6-7-6-4--9999-7777|
    ||-4-444-------------4-444-------------4-444--------------7777-5555|
    
    
    Tapping solo
    
    Part A
    ----------------------------------|
    ||--t--p---t--p---t--p---t--p---t--p---t--p---t--p---t--p-|
    ||-13-9-6-13-9-6-13-9-6-13-9-6-14-9-6-14-9-6-16-9-6-16-9-6| 2 Times
    ----------------------------------|
    ----------------------------------|
    ----------------------------------|
    
    ------------------------------------------|
    ||-t----p--t----p--t----p--t----p--t----p--t----p--t----p--t----p-|
    ||-16-11-8-16-11-8-16-11-8-16-11-8-18-11-8-18-11-8-20-11-8-20-11-8| End Part A
    ------------------------------------------|
    ------------------------------------------|
    ------------------------------------------|
    
    ------------------------------------------|
    ||-t----p--t----p--t----p--t----p--t----p--t----p--t----p--t----p-|
    ||-18-11-8-18-11-8-18-11-8-18-11-8-16-11-8-16-11-8-14-11-8-14-11-8|
    ------------------------------------------|
    ------------------------------------------|
    ------------------------------------------|
    
    repeat Part A 
    with Guit 2
    -----------------------------------|
    -----------------------------14----|
    ||--13tr~~~~~~~~~~~~~~~~~~~~~~~14tr~~~~~~~~~~~161616-------| 2 Times
    -----------------------------------|
    -----------------------------------|
    -----------------------------------|
    
    then
    
    ------------------------------------------|
    ||-t----p--t----p--t----p--t----p--t----p--t----p--t----p--t----p-|
    ||-18-11-8-18-11-8-18-11-8-18-11-8-16-11-8-16-11-8-14-11-8-14-11-8|
    ------------------------------------------| GUIT 1
    ------------------------------------------|
    ------------------------------------------|
    ||
    ||
    ------------------------------------------|
    ------------------------------------------|
    ||-21------21------21------21------20------21------23~------------| GUIT 2
    ------------------------------------------|
    ------------------------------------------|
    ------------------------------------------|
    
    
      Part B
    ----------------------------------|
    ||-t---p--t---p--t---p--t---p--t---p--t---p--t---p--t---p-|
    ||-11-6-3-11-6-3-10-6-3-11-6-3-13-6-3-13-6-3-11-6-3-13-6-3|
    ----------------------------------|
    ----------------------------------|
    ----------------------------------|
    
    
    ----------------------------------|
    ||-t---p--t---p--t---p--t---p--t---p--t---p--t---p--t---p-|
    ||-15-6-3-15-6-3-13-6-3-13-6-3-11-6-3-11-6-3-10-6-3-11-6-3|
    ----------------------------------|
    ----------------------------------|
    ----------------------------------|
    
    
    ----------------------------------|
    ||-t---p--t---p--t---p--t---p--t---p--t---p---t--p---t----|end Part B
    ||-10-6-3-10-6-3-10-6-3-10-6-3-11-6-3-11-6-3-13-6-3-13~---|
    ----------------------------------|
    ----------------------------------|
    ----------------------------------|
    
    repeat Part B and end with 2nd guitar playing a C# chord and 1st guitar
    holding the 18 (G#)
    
    Riff 8 sems to be like riff 1 with some minor differences
    (you ll be able to find it easilly. Me, I m tired;)
    Riff 2
    
    then to end:
      Riff 9
    ||----4-------------|----4-------------------|
    ||------7-5-4-5-4---|------7-5-4-5-4---|-5-4-5-7-4-5-4---|
    |-----6~-----4~----6~| Guit 1
    ---------|
    ---------|
    ---------|
    
    ---------|
    ---------|
    ||-6-----------------------------| Guit 2
    ||-6-hold-----------|-7----------------|-9--11----9--11--|
    ||-4----------------|-7-hold-----------|-9--11----9--11--|
    |-------|-5----------------|-7--9-----7--9---|
    
    repeat 3 times and end with a slide.
    Regards, Kantele
     

    Тональность:

    Нет текста!



    Назад
    Рекомендуем посмотреть другие песни исполнителя «Dark Tranquillity»:

    • Комментарии Facebook ()
    • Комментарии ВКонтакте



    Добавить в Избранное Браузера
    Сохранить здесь Очистить


    x

    0


    +
    -

    +
    -

    -

    Авторизация





    Зарегистрироваться

    M

    Дата и время

    • 11:45:26
       

    Социальные ссылки


    Наши приложения

    • Muzbank App Play Market
    • Muzbank Amazon App