MUZBANK



A Most Complete Bank Of Music Information

МУЗЫКАЛЬНО-ИНФОРМАЦИОННЫЙ БАНК

Поиск по сайту







    DDark Tranquillity • The Wonders At Your Feet (аккорды и текст - chords & lyrics)


    318

    Print

    Видео «The Wonders At Your Feet (Dark Tranquillity)»

    Видео клипы к песне подбираются автоматически сайтом youtube. Возможны некоторые несоответствия клипов песне.

    ↑ Спрятать рекламу ↑



    Download


     ..  - palm mute          /  - slide up to
       - slide down to      ~  - vibrato
     h  - hammer on          b  - bend
     p  - pull off            Suffixes for bend
                              ph - pinch harmonic
                               f - full bend    h - half bend
    *  - see comment           r - release      t - tap bend
    X  - percussion mute       ~ - vibrato bend
    @  - slight palm mute     () - ghost note, sustained note
    
    Tune Gtr to EADGBE - standard tuning
    
    THE WONDERS AT YOUR FEET
    
    Riff A
    |--------------------------------------------------------------------|
    |--------------------------------------------------------------------|
    |------------------------------------------------5-5-5-5-5-5-5-5-----|Gtr 
    |-0-2----------0-2----------2-2----5-5------7----5-5-5-5-5-5-5-5-----|I+II
    |-0-2----------0-2----------2-2----5-5------7----3-3-3-3-3-3-3-3-----|
    |-----0------------0--------0-0----3-3------5------------------------|
    
    
    Riff B                                                                   
    |--------------------------------------------------------------------|
    |--------------------------------------------------------------------|
    |--------------------------------------------------------------------|Gtr 
    |-2-2-2-2-2-2-2-2-5-5-5-5-5-5----------------------5-5-5-5-5-5-------|I+II
    |-2-2-2-2-2-2-2-2-------------7-5-7---------------------------7-5---|
    |-0-0-0-0-0-0-0-0--------------------0-0-0-0-0-0-0-------------------|
    
    
    Riff C
    |--------------------------------------------------------------------|
    |--------------------------------------------------------------------|
    |----------------------------5---------------------------------------|Gtr
    |-2--------5--------7--------5---------------------------------------|I+II
    |-2--------5--------7--------3---------------------------------------|
    |-0----00003----33335----5555----------------------------------------|
           ....     ....     ....
    
    Riff D                                                                    
    |--------------------------------------------------------------------|
    |--------------------------------------------------------------------|
    |--------------------------------------------------------------------|Gtr 
    |-9-9-9-9-9-7-7-7-9-9-9-9-9-7-7-7-7-7-7-7-7-5-5-5-4-4-4-5-5-5-7-7----| I
    |-7-7-7-7-7-7-7-7-7-7-7-7-7-7-7-7-5-5-5-5-5-5-5-5-5-5-5-5-5-5-5-5----|
    |--------------------------------------------------------------------|
    |                                                                    |
    |--------------------------------------------------------------------|
    |--------------------------------------------------------------------|
    |---------------------------------7-7-7-7-7-7-7-7-7-7-7-7-7-7-7-7----|Gtr
    |-2-2-2-2-2-2-2-2-2-2-2-2-2-2-2-2-7-7-7-7-7-7-7-7-7-7-7-7-7-7-7-7----|II
    |-2-2-2-2-2-2-2-2-2-2-2-2-2-2-2-2-5-5-5-5-5-5-5-5-5-5-5-5-5-5-5-5----|
    |-0-0-0-0-0-0-0-0-0-0-0-0-0-0-0-0-5-5-5-5-5-5-5-5-5-5-5-5-5-5-5-5----|
    
    
    |--------------------------------------------------------------------|
    |--------------------------------------------------------------------|
    |--------------------------------------------------------------------|Gtr
    |-9-9-9-9-9-7-7-7-9-9-9-9-9-7-7-7-7-7-7-7-7-5-5-5-4-4-4-5-5-5-7-7----| I
    |-7-7-7-7-7-7-7-7-7-7-7-7-7-7-7-7-5-5-5-5-5-5-5-5-5-5-5-5-5-5-5-5----|
    |--------------------------------------------------------------------|
    |                                                                    |
    |--------------------------------------------------------------------|
    |--------------------------------------------------------------------|
    |--------------------------------------------------------------------|Gtr
    |-2-2-2-2-2-2-2-2-2-2-2-2-2-2-2-2-0-0-0-0-0-0-0-0-4-4-4-5-5-5-7-7----|II
    |-3-3-3-3-3-3-3-3-3-3-3-3-3-3-3-3-2-2-2-2-2-2-2-2-5-5-5-5-5-5-5-5----|
    |--------------------------------------------------------------------|
    
    
    Fill in
    |-----|
    |-----|
    |-----|Gtr
    |-----| I
    |-7~~-|
    |-----|
    |     |
    |-----|
    |-----|
    |-----|Gtr
    |-5~~-|II
    |-----|
    |-----|
    
    
    Riff E: gtr I playing with wahwah during keyboard part
    |--------------------------------------------------------------------|
    |--------------------------------------------------------------------|
    |--------------------------------------------------------------------|Gtr
    |-4-5-4-5~----7-5-7/9~----7h9----------------------------------------| I
    |--------------------------------------------------------------------|
    |--------------------------------------------------------------------|
    
    
    |--------------------------------------------------------------------|
    |--------------------------------------------------------------------|
    |--------------------------------------------------------------------|Gtr
    |-9~~-----------------------------12~~-------------------------------| I
    |--------------------------------------------------------------------|
    |--------------------------------------------------------------------|
    |                                                                    |
    |--------------------------------------------------------------------|
    |-8-8-----8-----8-----8-----8-----7-7-----7-----7-----7-----7--------|
    |-----9-----9-----9-----9-----9-------7-----7-----7-----7-----7------|Gtr
    |-------9-----9-----9-----9-----9-------9-----9-----9-----9-----9----|II
    |--------------------------------------------------------------------|
    |--------------------------------------------------------------------|
          . . . . . . . . . . .           . . . . . . . . . . . 
    
    |--------------------------------------------------------------------|
    |--------------------------------------------------------------------|
    |--------------------------------------------------------------------|Gtr
    |-14~~------------------------------13~~-----------------------------| I
    |--------------------------------------------------------------------|
    |--------------------------------------------------------------------|
    |                                                                    |
    |--------------------------------------------------------------------|
    |-8------8------8------8------8------7-7-----7-----7-----7-----7-----|
    |---9------9------9------9------9--------8-----8-----8-----8-----8---|Gtr
    |-----10-----10-----10-----10-----10-------9-----9-----9-----9-----9-|II
    |--------------------------------------------------------------------|
    |--------------------------------------------------------------------|
      . .  . . .  . . .  . . .  .          . . . . . . . . . . . . . . . 
    
    Riff F
    |----------------------------------------------------------------------|
    |----------------------------------------------------------------------|
    |-----------4-5----5-------4----4------2---------------5---------------|Gtr
    |-2----2----4-5----5-------4----4--5-4-2---------------5---------------|I+II
    |-2----2----2-3----3----5~-2----2------0-0-0-0-0-0-0-0-3-3-3-3-3-------|
    |-0----0---------------------------------------------------------2-3-2-|
                                             . . . . . . .   . . . . 
    
    Solo
    |-17bf-hold-17bfr-17-17-17p15--15-15-1514-15h17p15p14---------------|
    |------------------------------------------------------15bfr---------|
    |--------------------------------------------------------------------|Gtr
    |--------------------------------------------------------------------| I
    |--------------------------------------------------------------------|
    |--------------------------------------------------------------------|
    
    
    |---------------------------12-14----------15-19-15----15-17-15~~----|
    |-13-12-13~-------12-13-12-----------15-19----------19---------------|
    |--------------14-----------------16---------------------------------|Gtr 
    |--------------------------------------------------------------------| I
    |--------------------------------------------------------------------|
    |--------------------------------------------------------------------|
    
    
    |-t12p8p7p5p0h5h7h8-t12p8p7p5p0h5h7h8-t12p8p7p5p0h5h7h8--------------|
    |--------------------------------------------------------------------|
    |--------------------------------------------------------------------|Gtr
    |--------------------------------------------------------------------| I
    |--------------------------------------------------------------------|
    |--------------------------------------------------------------------|
    
    
    |-t12p8p7p5p0h5h7h8-t15p12p10p8-t15p12p10p8-t15p12p10p8-t15p12p10p8--|
    |--------------------------------------------------------------------|
    |--------------------------------------------------------------------|Gtr
    |--------------------------------------------------------------------| I
    |--------------------------------------------------------------------|
    |--------------------------------------------------------------------|
    
    
    |-7~~----------------------------------------------------------------|
    |-----------------15~----15/19-17~~----------------------------------|
    |--------14bfr-12----------------------------------------------------|Gtr 
    |--------------------------------------------------------------------| I
    |--------------------------------------------------------------------|
    |--------------------------------------------------------------------|
    
    
    Rhythm on solo                                                               
    |--------------------------------------------------------------------|
    |--------------------------------------------------------------------|
    |-----------------------------4-4-5---------------5---------7-7-7----|Gtr
    |-2---------------2-----------4-4-5---------------5---------7-7-7----|II
    |-2---------------2-----------2-2-3-3-3-3-3-3-3-3-3-3-3-3-3-5-5-5----|
    |-0-0-0-0-0-0-0-0-0-0-0-0-0-0----------------------------------------|
        . . . . . . .   . . . . .       . . . . . . .   . . . . 
    
    |--------------------------------------------------------------------|
    |--------------------------------------------------------------------|
    |-4---------------4---------4---4-2---------------5------------------|Gtr
    |-4---------------4---------4---4-2---------------5------------------|II
    |-2-2-2-2-2-2-2-2-2-2-2-2-2-2-2-2-0-0-0-0-0-0-0-0-3-3-3-3-3----------|
    |-----------------------------------------------------------2-3-2----|
        . . . . . . .   . . . .   .     . . . . . . .   . . . . 
    
    |--------------------------------------------------------------------|
    |--------------------------------------------------------------------|
    |------------4-5-5-------------4-------------------------------------|Gtr
    |-2-2--------4-5-5--------5----4-------------------------------------|II
    |-2-2--------2-3-3--------5----2-------------------------------------|
    |-0-0---------------------3------------------------------------------| 

    Тональность:

    Нет текста!



    Назад
    Рекомендуем посмотреть другие песни исполнителя «Dark Tranquillity»:

    • Комментарии Facebook ()
    • Комментарии ВКонтакте



    Добавить в Избранное Браузера
    Сохранить здесь Очистить


    x

    0


    +
    -

    +
    -

    -

    Авторизация





    Зарегистрироваться

    M

    Дата и время

    • 13:47:09
       

    Социальные ссылки


    Наши приложения

    • Muzbank App Play Market
    • Muzbank Amazon App