MUZBANK



A Most Complete Bank Of Music Information

МУЗЫКАЛЬНО-ИНФОРМАЦИОННЫЙ БАНК

Поиск по сайту







    DDarkness • Get Your Hands Off My Woman (аккорды и текст - chords & lyrics)


    210

    Print

    Видео «Get Your Hands Off My Woman (Darkness)»

    Видео клипы к песне подбираются автоматически сайтом youtube. Возможны некоторые несоответствия клипов песне.

    ↑ Спрятать рекламу ↑



    Download



     
    
    
    tuning low to high e, a, d, g
    
    intro/chorus
    |-----------------------------------------------------|
    |-----------------------------------------------------|
    |-5-5---------3-3-0----------5-5---------3-3--3-0-3-4-|
    |-----6-61-1-------3-3-1-1------6-61-1--------------|
    
    verse 1
    |-----------------------------------------------------------------|
    |-0-0-0-0-0-0-0-0-0-0-0-0-0-0-0-0-0-0-0-0-0-0-0-0-0-0-0-----------|
    |-----------------------------------------------------------------| x2
    |-------------------------------------------------------1-3-3-1-1-|
    
    |-------------------------------------------------------------------------|
    |-------------------------------------------------------------------------|
    |-------------------------------------------------------------------------|
    |-3-3-1-3---1-3-3-1-3----/12-12-12-12-12-12-12-12-12-12-12-12-12-12-12-12-|
    
    |-------------------------|
    |-------------------------|
    |-------------------------|
    |-0-0-1-1-2-2-3-3-4-5-6-7-|
    
    verse 2
    |-----------------------------------------------------------------|
    |-0-0-0-0-0-0-0-0-0-0-0-0-0-0-0-0-0-0-0-0-0-0-0-0-0-0-0-3-5-5-3-3-|
    |-----------------------------------------------------------------| x2
    |-----------------------------------------------------------------|
    
    |-------------------------------------------------------------------------|
    |-------------------------------------------------------------------------|
    |-------------------------------------------------------------------------|
    |-3-3-1-3---1-3-3-1-3----/12-12-12-12-12-12-12-12-12-12-12-12-12-12-12-12-|
    
    |-------------------------|
    |-------------------------|
    |-------------------------|
    |-0-0-1-1-2-2-3-3-4-5-6-7-|
    
    backing for solo 
    |-------------------------|
    |-------------------------|
    |-------------------------| x4
    |/12-12-12-12-12-12-12-12-|
    
    |-------------------------|
    |-------------------------|
    |-------------------------|
    |-0-0-1-1-2-2-3-3-4-5-6-7-|
    
    i think thats it sounds rite 2 me. any comments or wotever email me
    nameandnumberhere@hotmail.com
     

    Тональность:

    Нет текста!



    Назад
    Рекомендуем посмотреть другие песни исполнителя «Darkness»:

    • Комментарии Facebook ()
    • Комментарии ВКонтакте



    Добавить в Избранное Браузера
    Сохранить здесь Очистить


    x

    0


    +
    -

    +
    -

    -

    Авторизация





    Зарегистрироваться

    M

    Дата и время

    • 16:44:50
       

    Социальные ссылки


    Наши приложения

    • Muzbank App Play Market
    • Muzbank Amazon App