MUZBANK



A Most Complete Bank Of Music Information

МУЗЫКАЛЬНО-ИНФОРМАЦИОННЫЙ БАНК

Поиск по сайту







    DDarkness • Get Your Hands Off Of My Woman (аккорды и текст - chords & lyrics)


    298

    Print

    Видео «Get Your Hands Off Of My Woman (Darkness)»

    Видео клипы к песне подбираются автоматически сайтом youtube. Возможны некоторые несоответствия клипов песне.

    ↑ Спрятать рекламу ↑



    Download


     
    
    
    ----------------------------------------------------------------------------
    		Get Your Hands Off my Woman - The Darkness
    ----------------------------------------------------------------------------
    
    Tabbed By : Nitro (Mike Bryant)
    e-mail: michaelbryant2003@hotmail.com
    
    Tuning: Standard (EADG)
    
                         1           2
    G|-------------|-----------|-----------|
    D|-0-0---------|-----------|-----------|
    A|-----1-1-----|-3-3---3---|-3-3---3-4-|
    E|---------1-1-|-----3---1-|-----3-----|
    
    G|-----------------------------------------|
    D|-0-0-0-0-0-0-0-0-0-0-0-0-0-0-0-0---------|
    A|-----------------------------------------|
    E|---------------------------------3-3-1-1-|
    
    G|-----------------------------------------------------------------|
    D|-----------------------------------------------------------------|
    A|-----------------------------------------------------------------|
    E|-3-3-1-3-x-x-x-x-x-x-3-3-1-3-x-x-x-x-x-x-/3-15-15-15-15-15-15-15-|
    
    G|-----------------|
    D|-----------------|
    A|-----------1-2-3-|
    E|-0-1-2-3-4-------|
    
                         1           2
    G|-------------|-----------|-----------|
    D|-0-0---------|-----------|-----------|
    A|-----1-1-----|-3-3---3---|-3-3---3-4-|
    E|---------1-1-|-----3---1-|-----3-----|
    
    G|-------------------------------------------|
    D|-0-0-0-0-0-0-0-0-0-0-0-0-0-0-0-0---------0-|
    A|-------------------------------------------|
    E|---------------------------------3-3-1-1---|
    
                         1           2
    G|-------------|-----------|-----------|
    D|-0-0---------|-----------|-----------|
    A|-----1-1-----|-3-3---3---|-3-3---3-4-|
    E|---------1-1-|-----3---1-|-----3-----|
    
    G|---------------------------------------------------|
    D|---------------------------------------------------|
    A|---------------------------------------------------|
    E|-3-3-3-3-3-3-3-3-3-3-3-3-3-3-3-3-15-15-15-15-15-15-|
    
    G|-----------------|
    D|-----------------|
    A|-----------1-2-3-|
    E|-0-1-2-3-4-------|
    
                         1           2
    G|-------------|-----------|-----------|
    D|-0-0---------|-----------|-----------|
    A|-----1-1-----|-3-3---3---|-3-3---3-4-|
    E|---------1-1-|-----3---1-|-----3-----|
    
    | /  slide up
    |   slide down
    | h  hammer-on
    | p  pull-off
    | ~  vibrato
    | +  harmonic
    | x  Mute note
    ============================================================================
     

    Тональность:

    Нет текста!



    Назад
    Рекомендуем посмотреть другие песни исполнителя «Darkness»:

    • Комментарии Facebook ()
    • Комментарии ВКонтакте



    Добавить в Избранное Браузера
    Сохранить здесь Очистить


    x

    0


    +
    -

    +
    -

    -

    Авторизация





    Зарегистрироваться

    M

    Дата и время

    • 17:12:06
       

    Социальные ссылки


    Наши приложения

    • Muzbank App Play Market
    • Muzbank Amazon App