MUZBANK



A Most Complete Bank Of Music Information

МУЗЫКАЛЬНО-ИНФОРМАЦИОННЫЙ БАНК

Поиск по сайту







    DDarkness • Givin Up (аккорды и текст - chords & lyrics)


    298

    Print

    Видео «Givin Up (Darkness)»

    Видео клипы к песне подбираются автоматически сайтом youtube. Возможны некоторые несоответствия клипов песне.

    ↑ Спрятать рекламу ↑



    Download


     
    
    
    Intro   e---------------------------------
            b--4-4-5-4-4-4-5-4-4-4-5-4--------
            g--4-4-4-4-4-4-4-4-4-4-4-4-----3-4
            d--4-4-6-4-4-4-6-4-4-4-6-4-4-4-3-4
            a--------------------------4-4-1-2
            E--------------------------2-2----
    
    
    
    verse   e------------------      
            b------------------
            g--4-4----------3-4
            d--4-4-6-4-6-44-3-4
            a--2-2-6-4-6-44-1-2
            E------4-2-4-22----
    
           
            e---------------4-3--
            b---------------5-4-4
            g---------------4-3-4  REPEAT THIS TWICE
            d--4-4-44-4-4-------4
            a--4-4-44-4-4--------
            E--2-2-22-2-2--------
    
            e--0-0-0-0-0hold string-0-0-0-0-----2
            b--0-4-2-0-0hold string-0-4-2-0-2/4--
            g----------1hold string--------------
            d------------------------------------
            a------------------------------------
            E------------------------------------
    
    
    chorus=same as intro and verse together
     

    Тональность:

    Нет текста!



    Назад
    Рекомендуем посмотреть другие песни исполнителя «Darkness»:

    • Комментарии Facebook ()
    • Комментарии ВКонтакте



    Добавить в Избранное Браузера
    Сохранить здесь Очистить


    x

    0


    +
    -

    +
    -

    -

    Авторизация





    Зарегистрироваться

    M

    Дата и время

    • 05:21:31
       

    Социальные ссылки


    Наши приложения

    • Muzbank App Play Market
    • Muzbank Amazon App