MUZBANK



A Most Complete Bank Of Music Information

МУЗЫКАЛЬНО-ИНФОРМАЦИОННЫЙ БАНК

Поиск по сайту







    DDarkness • Growing On Me (аккорды и текст - chords & lyrics)


    206

    Print

    Видео «Growing On Me (Darkness)»

    Видео клипы к песне подбираются автоматически сайтом youtube. Возможны некоторые несоответствия клипов песне.

    ↑ Спрятать рекламу ↑



    Download



     
    
    
    intro
    e---5------5-------------------------------
    b-----3------3---3---------3-----5---3-----
    g-2-----2------2---------2----2------------
    d-0--------------------0------------------- 
    a-------------------4----------------------
    d------------------------------------------x3 (on last time, let ring on 5)
    
    
    e------------------------------------------
    b------------------------------------------
    g-22-2-2-2---------------------------------
    d-22-2-2-2----5-4-0---5-4-0-----7-----------
    a-00-0-0-0----5-4-0---5-4-0-----7-----------
    d-------------5-4-0---5-4-0-----7-----------
    
    verse1
    e------------------------------------------------------------
    b------------------------------------------------------------
    g------------------------------------------------------------
    d--0-0--7-7--9-9--------------0-0--7-7-9-9---5-5--4-4--4-0-0-
    a--0-0--7-7--9-9--------------0-0--7-7-9-9---5-5--4-4--4-0-0-
    d--0-0--7-7--9-9--------------0-0--7-7-9-9---5-5--4-4--4-0-0-
    
    e-----------------------------------------
    b-----------------------------------------
    g------------------22-2-2-2---------------
    d-0-0--7-7--9-9----22-2-2-2--5-4-0-5-4-0--
    a-0-0--7-7--9-9----00-0-0-0--5-4-0-5-4-0--
    d-0-0--7-7--9-9--------------5-4-0-5-4-0--
    
    e------------------------------------------------------------
    b------------------------------------------------------------
    g------------------------------------------------------------
    d--0-0--7-7--9-9--------------0-0--7-7-9-9---5-5--4-4--4-0-0-
    a--0-0--7-7--9-9--------------0-0--7-7-9-9---5-5--4-4--4-0-0-
    d--0-0--7-7--9-9--------------0-0--7-7-9-9---5-5--4-4--4-0-0-
    
    e---------------------------------------
    b---------------------------------------
    g------------------22-2-2-2-------------
    d-0-0--7-7--9-9----22-2-2-2--0-2-0-4-0--
    a-0-0--7-7--9-9----00-0-0-0--0-2-0-4-0--
    d-0-0--7-7--9-9--------------0-2-0-4-0--
    
    bridge
    e---5------5-------------------------------
    b-----3------3---3---------3-----5---3-----
    g-2-----2------2---------2----2------------
    d-0--------------------0------------------- 
    a-------------------4----------------------
    d------------------------------------------x3 (on last time, let ring on 5)
    
    chorus
    e--------------------------------------------------------------------
    b--------------------------------------------------------------------
    g--------------------------------------------------------------------
    d--4-4--5-5--7-7--0-0--0---9-9--5-5--7-7--0-0---4-4--5-5--7-7--0-0---
    a--4-4--5-5--7-7--0-0--0---9-9--5-5--7-7--0-0---4-4--5-5--7-7--0-0---
    d--4-4--5-5--7-7--0-0--0---9-9--5-5--7-7--0-0---4-4--5-5--7-7--0-0---
    
    e--------------------------
    b--------------------------
    g---22-2-2-2---------------
    d---22-2-2-2--5-4-0-5-4-0--
    a---00-0-0-0--5-4-0-5-4-0--
    d-------------5-4-0-5-4-0--
    
    verse2
    e------------------------------------------------------------
    b------------------------------------------------------------
    g------------------------------------------------------------
    d--0-0--7-7--9-9--------------0-0--7-7-9-9---5-5--4-4--4-0-0-
    a--0-0--7-7--9-9--------------0-0--7-7-9-9---5-5--4-4--4-0-0-
    d--0-0--7-7--9-9--------------0-0--7-7-9-9---5-5--4-4--4-0-0-
    
    e---------------------------------------
    b---------------------------------------
    g------------------22-2-2-2-------------
    d-0-0--7-7--9-9----22-2-2-2--0-2-0-4-0--
    a-0-0--7-7--9-9----00-0-0-0--0-2-0-4-0--
    d-0-0--7-7--9-9--------------0-2-0-4-0--
    
    bridge
    e---5------5-------------------------------
    b-----3------3---3---------3-----5---3-----
    g-2-----2------2---------2----2------------
    d-0--------------------0------------------- 
    a-------------------4----------------------
    d------------------------------------------x3 (on last time, let ring on 5)
    
    chorus
    e--------------------------------------------------------------------
    b--------------------------------------------------------------------
    g--------------------------------------------------------------------
    d--4-4--5-5--7-7--0-0--0---9-9--5-5--7-7--0-0---4-4--5-5--7-7--0-0---
    a--4-4--5-5--7-7--0-0--0---9-9--5-5--7-7--0-0---4-4--5-5--7-7--0-0---
    d--4-4--5-5--7-7--0-0--0---9-9--5-5--7-7--0-0---4-4--5-5--7-7--0-0---
    
    e--------------------------
    b--------------------------
    g---22-2-2-2---------------
    d---22-2-2-2--5-4-0-5-4-0--
    a---00-0-0-0--5-4-0-5-4-0--
    d-------------5-4-0-5-4-0--
    
    
    e-2-2-3-3-2-0-0-2-2-2-2--2-2-3-3-0-0-2-2--
    b-3-3-3-3-3-3-3-3-3-3-3--3-3-3-3-3-3-3-3--
    g-2-2-2-2-2-2-2-2-2-2-2--2-2-2-2-2-2-2-2--
    d-0-0-0-0-0-0-0-0-0-0-0--0-0-0-0-0-0-0-0--
    a-----------------------------------------
    d-----------------------------------------
    
    solo 1
    e--------------------------------------------------------
    b--------------------------------------------------------
    g-----------------------------------11-12-14-12-11-------
    d-----------------12-12--14-12--12b----------------14-14-
    a-5-5-x-5-9-9-7-5----------------------------------------
    d--------------------------------------------------------
    
    e------------------------------------19--17--15--14-15hp-14--12----
    b-19-19-19p-17p-15-15-17-19p-17p-15--------------------------------
    g------------------------------------------------------------------
    d------------------------------------------------------------------
    a------------------------------------------------------------------
    d------------------------------------------------------------------
    
    chorus
    e--------------------------------------------------------------------
    b--------------------------------------------------------------------
    g--------------------------------------------------------------------
    d--4-4--5-5--7-7--0-0--0---9-9--5-5--7-7--0-0---4-4--5-5--7-7--0-0---
    a--4-4--5-5--7-7--0-0--0---9-9--5-5--7-7--0-0---4-4--5-5--7-7--0-0---
    d--4-4--5-5--7-7--0-0--0---9-9--5-5--7-7--0-0---4-4--5-5--7-7--0-0---
    
    e--------------------------
    b--------------------------
    g---22-2-2-2---------------
    d---22-2-2-2--5-4-0-5-4-0--
    a---00-0-0-0--5-4-0-5-4-0--
    d-------------5-4-0-5-4-0-- play chorus through solo2
    
    
    solo2
    e---------------------------------------------------------------------------
    b-----------------------------------------3-5hp-3--2-3hp-2--0-2hp-0---------
    g------------------7-7-6---9-9-9--7-9-7-------------------------------------
    d-0-4-2-0-0-2-4-4--------7-----------------------------------------0-2hp--0-
    a---------------------------------------------------------------------------
    d---------------------------------------------------------------------------
    
    e-------------------------------------------------------------------------
    b---------------------------15-14-15-14-15p-14p-12---15b-15b-15b-15-17-15-
    g--------------------------------------------------14---------------------
    d--12-16-14-12-12-14-16-16------------------------------------------------
    a-------------------------------------------------------------------------
    d-------------------------------------------------------------------------
    
    e----17--17-----17--17----17---17------17---17--------------------
    b-17---17--17-17--17----17---17--17-17---17-------15-17-15-17hp-15
    g-----------------------------------------------------------------
    d-----------------------------------------------------------------
    a-----------------------------------------------------------------
    d-----------------------------------------------------------------
    
    e--------------------------------------------------------------------------
    b-15-17-15-17hp-15-17-15-15-17hp-15----------------------------------------
    g------------------------------------14-14-14-16hp-14--12-14-12-11-12hp-11-
    d--------------------------------------------------------------------------
    a--------------------------------------------------------------------------
    d--------------------------------------------------------------------------
    
    e---------------------------------------------
    b---------------------------------------------
    g-9-7--7--9-9-7-7-5-5-4-4-2-2-0-0-------------
    d---------------------------------4-4-2-2-0-0-
    a---------------------------------------------
    d---------------------------------------------(fades out)
    
    i think thats it. not sure about 2nd solo though.
     

    Тональность:

    Нет текста!



    Назад
    Рекомендуем посмотреть другие песни исполнителя «Darkness»:

    • Комментарии Facebook ()
    • Комментарии ВКонтакте



    Добавить в Избранное Браузера
    Сохранить здесь Очистить


    x

    0


    +
    -

    +
    -

    -

    Авторизация





    Зарегистрироваться

    M

    Дата и время

    • 05:35:28
       

    Социальные ссылки


    Наши приложения

    • Muzbank App Play Market
    • Muzbank Amazon App