MUZBANK



A Most Complete Bank Of Music Information

МУЗЫКАЛЬНО-ИНФОРМАЦИОННЫЙ БАНК

Поиск по сайту







    DDarkness • Growing On Me (аккорды и текст - chords & lyrics)


    192

    Print

    Видео «Growing On Me (Darkness)»

    Видео клипы к песне подбираются автоматически сайтом youtube. Возможны некоторые несоответствия клипов песне.

    ↑ Спрятать рекламу ↑



    Download



     
    
    
    tuning low to high - d, a, d, g, b, e 
    ive tabbed this by watching who does what live with dan being guitar 1 and justin guitar 2
    
    intro guitar 1 
    |---|-5-----5-------------------0---|------------------| 
    |-3-|---3-----3-----------3-------3-|------------------| 
    |-2-|-----2-----2-2-----2---2-------|-2-2-2-2----------| 
    |-0-|-----------------0-------0-----|-2-2-2-2--5405400~| 
    |---|---------------4---------------|-0-0-0-0--5405400~| 
    |---|-------------------------------|----------5405400~| let last note ring 
        |    x3                         | 
    
    
    verse guitar 1 
    |----------------------------------------------------| 
    |----------------------------------------------------| 
    |----------------------------------------------------| 
    |007799---007799~775750-007799---x07~7~7~7~5405400-| 
    |007799---007799~775750-007799---x07~7~7~7~5405400-| 
    |007799---007799~775750-007799---x07~7~7~7~5405400-| 
    
    guitar 2 
    |--------------------------------------------3333-32-| 
    |--------------------------------------------3333-33-| 
    |--------------------------------------------2222-22-| 
    |--------------------------------------------0000-00-| 
    |----------------------------------------------------| 
    |----------------------------------------------------| 
    
    bridge - guitar 1 plays intro, guitar 2 plays
    |-----------------------------|
    |-----------------------------|
    |-----------------------------|
    |-7-75420224-275--7-754202202-|
    |-7-75420224-275--7-754202202-|
    |-7-75420224-275--7-754202202-|
    
    chorus
    guitar 1
    |----------------------|          |------------------|
    |----------------------|          |------------------|
    |----------------------|  x3      |------------------|
    |-5-5-7-7-779-9-0-0-00-|  ends--> |-77777777-5405400-|
    |-5-5-7-7-779-9-0-0-00-|          |-77777777-5405400-|
    |-5-5-7-7-779-9-0-0-00-|          |-77777777-5405400-|
    
    guitar 2
    |-3332222200022222-|
    |-3333333333333333-|
    |-2222222222222222-|
    |------------------|
    |------------------|
    |------------------|
    
    bit before solo 1
    guitar 1
    |-3322-2-0-0-2-22--3322-2-0-0---|
    |-3333-3-3-3-3-33--3333-3-3-3-3-|
    |-2222-2-2-2-2-22--2222-2-2-2-2-|
    |-----------------------------0-|
    |-------------------------------|
    |-------------------------------|
    
    solo 1
    guitar 2
    |---------------------------------------------------------
    |--------------------------------------------7^9^7--------
    |-------------------------7-9-7-9-7-9(9.5)-9-------9(9.5)-
    |-----------------5-7-9-9---------------------------------
    |-3--x-3-5--3-5-7-----------------------------------------
    |---------------------------------------------------------
    
    |----12(13)12(13)14^12^10-12-12(13)10--10-17(19)-17-15^17^1512-|
    |-970--------------------------------12--------------------------|
    |----------------------------------------------------------------|
    |----------------------------------------------------------------|
    |----------------------------------------------------------------|
    |----------------------------------------------------------------|
    
    backing for solos 1 and 2 is same as guitar 1 chorus
    
    solo 2
    |-------------------------------------------------------|
    |----------------3-3-207(8)7(8)-7-7-9^7^9^7-------------|
    |------------------------------------------9^7----------|
    |------------4--------------------------------7^5-------|
    |-3---5305357------------------------------------7^5^3-|
    |-------------------------------------------------------|
    
    |-----12-10-0-12-10-12/14--17-17-15----19(20)19(20)-|  at this point just
    |-----------------------------------17--------------|  solo on the top string
    |-/9------------------------------------------------|  between the 12th and
    |---------------------------------------------------|  21st fret like justin
    |---------------------------------------------------|  does live
    |---------------------------------------------------|
    
    ^=hammer on/pull off depending on which way on the scale it is played
    /=slide up
    =slide down
    numbers in ( )= bend note played before to note in ( )
    
    any comments or wotever email me nameandnumberhere@hotmail.com
     

    Тональность:

    Нет текста!



    Назад
    Рекомендуем посмотреть другие песни исполнителя «Darkness»:

    • Комментарии Facebook ()
    • Комментарии ВКонтакте



    Добавить в Избранное Браузера
    Сохранить здесь Очистить


    x

    0


    +
    -

    +
    -

    -

    Авторизация





    Зарегистрироваться

    M

    Дата и время

    • 21:44:23
       

    Социальные ссылки


    Наши приложения

    • Muzbank App Play Market
    • Muzbank Amazon App