MUZBANK



A Most Complete Bank Of Music Information

МУЗЫКАЛЬНО-ИНФОРМАЦИОННЫЙ БАНК

Поиск по сайту







    DDarkness • I Believe In A Thing Called Love (аккорды и текст - chords & lyrics)


    164

    Print

    Видео «I Believe In A Thing Called Love (Darkness)»

    Видео клипы к песне подбираются автоматически сайтом youtube. Возможны некоторые несоответствия клипов песне.

    ↑ Спрятать рекламу ↑



    Download



     
    
    
    intro/verse
    e----------------------------------------------------------------------
    b----------------------------------------------------------------------
    g----------------------------------------------------------------------
    D--------------------------------------------4-----7--9-9----9--2-2---
    A--------------------------------------------4-----7--9-9----9--2-2---
    E--2-----5--7-7----7--0-0---7-7--5-4~5--7~--2-----5--7-7----7--0-0---
    
    ----------------|
    ----------------|
    ----------------|
    -9-9--7---------|
    -9-9--7---------|
    -7-7--5-4~5--7~-|
    
    bridge       PM=============              PM=============
    e---------------------------------------------------------
    b---------------------------------------------------------
    g---------------------------------------------------------
    D--2---4-----4-4-4-4-4-4-4-4----2---4-----4-4-4-4-4-4-4-4-
    A--2---4-----4-4-4-4-4-4-4-4----2---4-----4-4-4-4-4-4-4-4-
    E--0---2-----2-2-2-2-2-2-2-2----0---2-----2-2-2-2-2-2-2-2-
    
                             PM================(slowly release)
    --------------------------------------------|
    --------------------------------------------|
    --------------------------------------------|
    -2---4----7---8---9------9-9-9-9-9-9-9-9-9--|
    -2---4----7---8---9------9-9-9-9-9-9-9-9-9--|
    -0---2----5---6---7------7-7-7-7-7-7-7-7-7--|
    
    chorus
    e---------------------------------|
    b---------------------------------|
    g---------------------------------|
    D---------------------------------|
    A---------------------------------|
    E--0--2-4-5---5-4-2---2-5-7--9-7--|
    
    and thats it im afraid, solo shud be comin soon, until then enjoy!
     

    Тональность:

    Нет текста!



    Назад
    Рекомендуем посмотреть другие песни исполнителя «Darkness»:

    • Комментарии Facebook ()
    • Комментарии ВКонтакте



    Добавить в Избранное Браузера
    Сохранить здесь Очистить


    x

    0


    +
    -

    +
    -

    -

    Авторизация





    Зарегистрироваться

    M

    Дата и время

    • 07:09:37
       

    Социальные ссылки


    Наши приложения

    • Muzbank App Play Market
    • Muzbank Amazon App