MUZBANK



A Most Complete Bank Of Music Information

МУЗЫКАЛЬНО-ИНФОРМАЦИОННЫЙ БАНК

Поиск по сайту







    ДДДТ • Ветер (аккорды и текст - chords & lyrics)


    1829

    Print

    Видео «Ветер (ДДТ)»

    Видео клипы к песне подбираются автоматически сайтом youtube. Возможны некоторые несоответствия клипов песне.

    ↑ Спрятать рекламу ↑



    Download



       Em     C    Am        D
    E|-0-----------0---------2-3-2-0-|
    B|-0-----------1---------3-------|
    G|-0-----------2--2-2-0--2------- Вступление(4раза)
    D|-2--2-0-0-2--2-----------------/ Между куплетами (2 раза)
    A|-2-----3-----0-----------------| В конце (сколько душе угодно)
    E|-------------0-----------------|
    
      Em     C       Am      D       Em      C       Am     D
    E|------------------------------------------------------2-3-2-0|
    B|0----0-1-----1-1-----1-3-----3-0-----0-1-----1-1----1-3------|
    G|---0-------0-------2-------2-------0-------0-------2---------|
    D|-2-------2-------2-------0-------2-------2-------2-----------|
    A|-------------------------------------------------------------|
    E|-------------------------------------------------------------|
    
           О-пре-крас-ная даль погло-тив-ша-я  небо
           Облака как к любимой прижались к земле
           Где ты и я под простой да не скошенной крышей
           Ищем                      друг в друге тепло
    (с аккорда "С" переходим на бой)
    Что, что
    
    Припев:
        D        G     D              Em    C
        Что нам Ветер     да на это ответит,
                   G    D                  Em C D
        Несущийся мимо,   да сломавший крыло.
                       G    D                Em   C
        И, упав между нами,   так недолго любимых,
                        G  D (стоп)   D (проводим по струнам)
        Разбил он объятья    как простое стекло.
        (с буквы "о" слова "стекло" начинаем проигрыш(см.начало))
    
    Мы стояли на прошлом, мы ждали начала,
    Прижимаясь к стене, где исчезли они.
    Где еще одну жизнь одна смерть обвенчала
    Парой вспышек огня да в эти смутные дни.
    Что, что
    
    Припев.
    

    Тональность:

    Нет текста!



    Назад
    Рекомендуем посмотреть другие песни исполнителя «ДДТ»:

    • Комментарии Facebook ()
    • Комментарии ВКонтакте



    Добавить в Избранное Браузера
    Сохранить здесь Очистить


    x

    0


    +
    -

    +
    -

    -

    Авторизация





    Зарегистрироваться

    M

    Дата и время

    • 14:59:00
       

    Социальные ссылки


    Наши приложения

    • Muzbank App Play Market
    • Muzbank Amazon App