MUZBANK



A Most Complete Bank Of Music Information

МУЗЫКАЛЬНО-ИНФОРМАЦИОННЫЙ БАНК

Поиск по сайту







    DDeath • Pull The Plug (аккорды и текст - chords & lyrics)


    362

    Print

    Видео «Pull The Plug (Death)»

    Видео клипы к песне подбираются автоматически сайтом youtube. Возможны некоторые несоответствия клипов песне.

    ↑ Спрятать рекламу ↑



    Download



    
    
    Tabbed by: Stephen Finnerty
    
    Standard Tuning
    
    Intro       Riff A (4 Times)
    |----------||-----------------|
    |----------||-----------------|
    |-3-2------||--1-4-3---3-2----|
    |----3-2---||-0-1-4-3~----3-2-|
    
    Riff B
    |----------------------------------------------------|
    |----------------------------------------------------|
    |-------------------------------------------22222222-|
    |-000000-7h8-00005h7-0000-3-5-3-23-11111111---------|
    
    |----------------------------------------------------||----------|
    |----------------------------------------------------||----------|
    |-------------------------------------------22222222-||-11111111-|
    |-000000-7h8-00005h7-0000-3-5-3-23-11111111---------||----------|
    
    |----------------------------------------------------|
    |----------------------------------------------------|
    |-------------------------------------------22222222-|
    |-000000-7h8-00005h7-0000-3-5-3-23-11111111---------|
    
    |----------------------------------------------------||---|
    |----------------------------------------------------||---|
    |-------------------------------------------22222222-||-1-|
    |-000000-7h8-00005h7-0000-3-5-3-23-11111111---------||---|
    
    Riff C  (Twice)
    |-----------------------------||----------------------------|
    |-----------------------------||----------------------------|
    |------------------------2--1-||------------------------2-3-|
    |-0-0000-0-0000-0-1111-1---3--||-0-0000-0-0000-0-1111-1--3--|
    
    Pause
    
    |-----------------------------------------------------------|
    |-----------------------------------------------------------|
    |-----------------------------------------------------------|
    |00000000000000000000000000000000000000000000000000000000000|
    
    Riff D
    (7 Times)       (once)
    |--------------||------|
    |--------------||------|
    |-7-6----8-7---||-7-6--|
    |-----7------8-||----7-|
    
    Riff E (Twice)
    |--------------------------|
    |--------------------------|
    |---------6-5---------6-5--|
    |-44444444-4-644444444-4-6-|
    
    Riff F
    |-----------------------------------|
    |-----------------------------------|
    |-----------------------------------|
    |-3333444433334444-6666777766667777-|
    
    |-----------------------------------|
    |-----------------------------------|
    |-----------------------------------|
    |-3333444433334444-1111111111111111-|
    
    |-----------------------------------|
    |-----------------------------------|
    |-----------------------------------|
    |-3333444433334444-6666777766667777-|
    
    |-----------------------------------|
    |-----------------------------------|
    |-----------------------------------|
    |-3333444433334444-1111111111111111-|
    
    Riff E  (4 Times)
    |--------------------------|
    |--------------------------|
    |---------6-5---------6-5--|
    |-44444444-4-644444444-4-6-|
    
    Riff F
    |-----------------------------------|
    |-----------------------------------|
    |-----------------------------------|
    |-3333444433334444-6666777766667777-|
    
    |-----------------------------------|
    |-----------------------------------|
    |-----------------------------------|
    |-3333444433334444-1111111111111111-|
    
    |-----------------------------------|
    |-----------------------------------|
    |-----------------------------------|
    |-3333444433334444-6666777766667777-|
    
    |-----------------------------------|
    |-----------------------------------|
    |-----------------------------------|
    |-3333444433334444-1111111111111111-|
    
    Riff G  (4 Times)
    |-------------------------------------------------------------------------------
    |-------------------------------------------------------------------------------
    |-----------------------------------------------------111111111111--------------
    |-111111111111-000000000000-333333333333-222222222222--------------111111111111-
    
    (continued)
     --------------------------|
     --------------------------|
     --------------------------|
     -000000000000000000000000-|
     
    Riff H
    |-----------------------------------------------------|
    |-----------------------------------------------------|
    |-----------------------------------------------------|
    |-777777777777-333333333333-666666666666-222222222222-|
    
    |-----------------------------------------------------||-------------|
    |-----------------------------------------------------||-------------|
    |-----------------------------------------------------||-------------|
    |-777777777777-333333333333-666666666666-222222222222-||-2-3-2-2-3-2-|
    
    |-----------------------------------------------------|
    |-----------------------------------------------------|
    |-----------------------------------------------------|
    |-777777777777-333333333333-666666666666-222222222222-|
    
    |-----------------------------------------------------||-------------|
    |-----------------------------------------------------||-------------|
    |-----------------------------------------------------||-------------|
    |-777777777777-333333333333-666666666666-222222222222-||-2-3-2-2-3-2-|
    
    
    Riff A (4 Times)
    |-----------------|
    |-----------------|
    |--1-4-3---3-2----|
    |-0-1-4-3~----3-2-|
    
    Riff B
    |----------------------------------------------------|
    |----------------------------------------------------|
    |-------------------------------------------22222222-|
    |-000000-7h8-00005h7-0000-3-5-3-23-11111111---------|
    
    |----------------------------------------------------||----------|
    |----------------------------------------------------||----------|
    |-------------------------------------------22222222-||-11111111-|
    |-000000-7h8-00005h7-0000-3-5-3-23-11111111---------||----------|
    
    |----------------------------------------------------|
    |----------------------------------------------------|
    |-------------------------------------------22222222-|
    |-000000-7h8-00005h7-0000-3-5-3-23-11111111---------|
    
    |----------------------------------------------------||---|
    |----------------------------------------------------||---|
    |-------------------------------------------22222222-||-1-|
    |-000000-7h8-00005h7-0000-3-5-3-23-11111111---------||---|
    
    Riff C  (Twice)
    |-----------------------------||----------------------------|
    |-----------------------------||----------------------------|
    |------------------------2--1-||------------------------2-3-|
    |-0-0000-0-0000-0-1111-1---3--||-0-0000-0-0000-0-1111-1--3--|
     
    
    
    
    Memories is all thats left behind
    As I lay and wait to die
    Little do they know
    That I hear their choice of life
    
    End it now, it is the only way
    Too cruel, that is what they say
    Release me from this lonely world
    There is no hope - why dont you
    
    Pull the plug
    Let me pass away
    Pull the plug
    Dont wanna live this way
    
    Once I had full control of my life
    I now behold a machine decides my fate
    End it now its all too late
    What has now been days, it seems like years
    To stay like this is what I fear
    Life ends so fast, so take your chance
    And make it last
    
    End it now, it is the only way
    Too cruel, that is what they say
    Release me from this lonely world
    There is no hope - why dont you
    
    Pull the plug
    Let me pass away
    Pull the plug
    Dont wanna live this way
    
    
    Rhythm Guitar:
    
               Riff A             (end of Riff A)
    |---------||-------------------------------||
    |---------||-------------------------------||
    |---------||----3-----6-----5--------------||
    |-5-4-----||-2--3--3--6--6--5------5-4-----||
    |-3-2-5-4-||-2--1--3--4--6--3--ph--3-2-5-4-||
    |-----3-2-||-0-----1-----4-----3~------3-2-||
      . . . .                          . . . .
     
    Play Riff A a total of four times
                                                  ________    _______    ____
     Riff B                                      | 1,3       | 2        | 4
    |------------------------------------------------------|----------|------|
    |------------------------------------------------------|----------|------|
    |*----------------------------------------------------*|----------|------|
    |*-------------------------------------------44444444-*|-33333333-|-3----|
    |--------------------------5-7-5-4\5-3333333322222222--|-11111111-|-1----|
    |-000000-7h8-0000-5h7-0000-3-5-3-2\3-11111111----------|----------|------|
      ......     ....     ....           ................
                                  ______  ______
    Riff C                       | 1,3   | 2,4
    |-----------------------------------|-------|
    |-----------------------------------|-------|
    |-----------------------------------|-------|
    |--------2--------2--------3--4---3-|-4---5-|
    |--------2--------2--------3--2-5-1-|-2-5-3-|
    |-0-0000-0-0-0000-0-1-1111-1----3---|---3---|
      . ....   . ....   . ....
     
    |--------------------------------|
    |--------------------------------|  Play This Riff 6 times
    |--------------------------------|
    |--------------------------------|
    |-7p6---8p7---7p6-7p6---8p7---7~-|
    |-----7-----8---------7-----8----|
     
    thanks to Baston for fixing this riff
    |---------|---------|----------|---------|
    |---------|---------|----------|---------|
    |---------|---------|----------|---------|
    |---------|-6---5~--|--2---1~--|-3---2~--|
    |-5---4~--|---7-----|----3-----|---4-----|
    |---6-----|---------|----------|---------|
        .         .          .         .
     
    Play the above Riff four times, but on the 8th measure add an octave harmony
    until the riff ends, plus on the fourth time only play the 1st 3 measures.
                                               _______________   _______________
     Riff D(play twice)       Riff E          | 1,3             | 2,4
    |------------------------|---------------------------------|-----------------|
    |------------------------|---------------------------------|-----------------|
    |------------------------|*-------------------------------*|-----------------|
    |------------------------|*-------------------------------*|-----------------|
    |--------6-5---------6-5-|---------------------------------|-----------------|
    |44444444-4-644444444-4-6|33334444333344446666777766667777-|1111111111111111-|
     ........    ........     ................................  ................
     
    Play Riff D 4 times 
    Play Riff E 
     
     Riff F
    |--------------------------------------------------------------------------|
    |--------------------------------------------------------------------------|
    |--------------------------------------------------------------------------|
    |--------------------------------------------------------------------------|
    |-------------------------------------------------111111111111-------------|
    |-111111111111000000000000333333333333222222222222------------111111111111-|
      ........................................................................
     
    continuation of above Riff
    |--------------------------|
    |--------------------------| Play Riff F a total of four times
    |--------------------------|
    |--------------------------|
    |--------------------------|
    |-000000000000000000000000-|
      ........................             ___________    __________
                                          | 1,3          | 2,4
    |--------------------------------------------------|-------------|
    |--------------------------------------------------|-------------|
    |--------------------------------------------------|-------------|
    |--------------------------------------------------|-------------|
    |--------------------------------------------------|-4-5-4-4-5-4-|
    |-777777777777333333333333666666666666222222222222-|-2-3-2-2-3-2-|
      ................................................   . . . . . .
     
    Play Riff A four times 
    Play Riff B 
    Play Riff C

    Тональность:

    Нет текста!



    Назад
    Рекомендуем посмотреть другие песни исполнителя «Death»:

    • Комментарии Facebook ()
    • Комментарии ВКонтакте



    Добавить в Избранное Браузера
    Сохранить здесь Очистить


    x

    0


    +
    -

    +
    -

    -

    Авторизация





    Зарегистрироваться

    M

    Дата и время

    • 21:23:40
       

    Социальные ссылки


    Наши приложения

    • Muzbank App Play Market
    • Muzbank Amazon App