MUZBANK



A Most Complete Bank Of Music Information

МУЗЫКАЛЬНО-ИНФОРМАЦИОННЫЙ БАНК

Поиск по сайту







    DDeath • Pull The Plug (аккорды и текст - chords & lyrics)


    228

    Print

    Видео «Pull The Plug (Death)»

    Видео клипы к песне подбираются автоматически сайтом youtube. Возможны некоторые несоответствия клипов песне.

    ↑ Спрятать рекламу ↑



    Download



     
    
    
    --17h14h12h14h15h17h14h15----14/-17h14h12h14h15h17h14-15-15-14~---|
    --------------------------12--------------------------------------|
    ------------------------------------------------------------------|
    ------------------------------------------------------------------|
    ------------------------------------------------------------------|
    ------------------------------------------------------------------|
    
    
                                                         
    --15h12h15h12----15h12h15h12----15h12---------------|
    --------------13-------------13---------------------|
    --------------------------------------14~-----------|
    ----------------------------------------------------|
    ----------------------------------------------------|
    ----------------------------------------------------|
    
    
                                                                               
    --------------------------------------------------------------------------|
    --15h13h12h15h12----15h13h12h15h12----15h13h12h15h12----15h13h12-15h12----|
    -----------------14----------------14----------------14----------------14-|
    --------------------------------------------------------------------------|
    --------------------------------------------------------------------------|
    --------------------------------------------------------------------------|
    
    
                                  
    --------------------------12-|
    --9--------------------------|
    -----------------------------|
    -----------------------------|
    -----------------------------|
    -----------------------------|
    
    
                                                                               
    --15h12h15h12h15h12h20h12h15h12h15h12-------------------------------------|
    --------------------------------------15h12h15h12h15h12h20h12h15h12h15h12-|
    --------------------------------------------------------------------------|
    --------------------------------------------------------------------------|
    --------------------------------------------------------------------------|
    --------------------------------------------------------------------------|
    
    
                                                         
    ----------------------------------------------------|
    ----------------------------------------------------|
    --14h12h14h12h14h12h19h12h14h12h14-12---------------|
    --------------------------------------14~-----------|
    ----------------------------------------------------|
    ----------------------------------------------------|
    
    
                                                                               
    --------------------------------------------------------------------------|
    --15h13h12h15h12----15h13h12h15h12----15h13h12h15h12----15h13h12-15h12----|
    -----------------14----------------14----------------14----------------14-|
    --------------------------------------------------------------------------|
    --------------------------------------------------------------------------|
    --------------------------------------------------------------------------|
    
    
                                                                                
    ---------------------------|-----------------------------------------------|
    ---------------------------|--12-------------------------------------------|
    ---------------------------|---------------------9h10h9-----9--11--12--11--|
    ---------------------------|----------9--11--12---------12-----------------|
    --0------------------------|-----------------------------------------------|
    ---------------------------|-----------------------------------------------|
    
    
                                                  
    ---------------------------------------------|
    ---------------------------------12-12-12-12-|
    --9--11--9-----------------------------------|
    ------------12--11--9--11~-------------------|
    ---------------------------------------------|
    ---------------------------------------------|
    
    
                                                                               
    --------------------------------------------------------------------------|
    --13h12h10h13h10----13h12h10h13h10----13h12h10h13h10----13h12h10-13h10----|
    -----------------12----------------12----------------12----------------12-|
    --------------------------------------------------------------------------|
    --------------------------------------------------------------------------|
    --------------------------------------------------------------------------|
    
    
                                                      
    -------------------------------------------------|
    --13h12h10h13h10----13h12h10h13h10---------------|
    -----------------12----------------9~------------|
    -------------------------------------------------|
    -------------------------------------------------|
    -------------------------------------------------|
    
    
                                                             
    --------------------------------------------------------|
    --------------------------------------------------------|
    --16~---------16-17-16-14----------------14-16-17-16-17-|
    --------------------------16-14----14-16----------------|
    --------------------------------16----------------------|
    --------------------------------------------------------|
    
    
                                                                               
    -----------------------------14-15-17-15-14----------------14-15-17-------|
    --14-15-17----14-15-17-15-17----------------17-15-14-15-17----------17-15-|
    -----------17-------------------------------------------------------------|
    --------------------------------------------------------------------------|
    --------------------------------------------------------------------------|
    --------------------------------------------------------------------------|
    
    
                                       
    --17b-----17b-----17r-----17b-----|
    ----------------------------------|
    ----------------------------------|
    ----------------------------------|
    ----------------------------------|
    ----------------------------------|
    
    
                                                                   
    --18-17-15----------18-17-15----------------------------------|
    -----------18-16-15----------18-16-15-13----------------------|
    ------------------------------------------14------12----------|
    ----------------------------------------------11--------------|
    ------------------------------------------------------15------|
    ----------------------------------------------------------12~-|
     

    Тональность:

    Нет текста!



    Назад
    Рекомендуем посмотреть другие песни исполнителя «Death»:

    • Комментарии Facebook ()
    • Комментарии ВКонтакте



    Добавить в Избранное Браузера
    Сохранить здесь Очистить


    x

    0


    +
    -

    +
    -

    -

    Авторизация





    Зарегистрироваться

    M

    Дата и время

    • 17:35:11
       

    Социальные ссылки


    Наши приложения

    • Muzbank App Play Market
    • Muzbank Amazon App