MUZBANK



A Most Complete Bank Of Music Information

МУЗЫКАЛЬНО-ИНФОРМАЦИОННЫЙ БАНК

Поиск по сайту







    DDeathstars • Greatest Fight on Earth (аккорды и текст - chords & lyrics)


    257

    Print

    Видео «Greatest Fight on Earth (Deathstars)»

    Видео клипы к песне подбираются автоматически сайтом youtube. Возможны некоторые несоответствия клипов песне.

    ↑ Спрятать рекламу ↑



    Download


    Absorb all their fears, Collect all their minds
    We'll be the snakes wherever they'll play
    And we'll be the demons whenever they'll pray
    ...It' will be the greatest fight on the earth
    
    Snatch the wings of a fly
    Spit on them and nail them to my spine
    Say "little insect now fly away"
    But I'll be the demon in every psalm you pray
    
    The disease, the love, the claws, the blood
    The empty clinics of savaged hearts
    The rusty nails in lidless eyes
    ...And the skin won't ever be cleansed from the dirt...
    
    Come here
    Now come here
    Let me smell your fears
    
    Cry here
    Now cry here
    Let me enjoy your tears
    
    Lick the wet segments of a worm
    Taste it now and let it wriggle down your throat
    Mothers scream "Little children now run away"
    But I'll be the snake wherever they'll play
    
    Commence the extermination to weaken their wills
    Uncover their heart, free the insects and let them lead the way
    
    
    Riff 1
    |----------------------------------|
    |----------------------------------|
    |----------------------------------|
    |---4-4--4-4-4--3-3--5-6-6---------|  x4
    |---2-2--2-2-2--1-1--3-4-4---------|
    |----------------------------------|
        * *  * * *  * *  * * *    
    
    
     Then
    |----------------------------------|
    |----------------------------------|
    |----------------------------------|
    |---4-4---3-5-6--------------------|
    |---2-2---1-3-4--------------------|
    |----------------------------------|
        * *
     Break Down 
    |----------------------------------|
    |----------------------------------|
    |----------------------------------|
    |---4-4--4-4--4--3-3--3-3-5-6------|
    |---2-2--2-2--2--1-1--1-1-3-4------|
    |----------------------------------|
        * *  * *  ^  * *  *
    
    |----------------------------------|
    |----------------------------------|
    |----------------------------------|
    |---4-4--4-4--4--3-3--3-2-4-5------|
    |---2-2--2-2--2--1-1--1-0-2-3------|
    |----------------------------------|
        * *  * *  ^  * *  *
    
    |----------------------------------|
    |----------------------------------|
    |----------------------------------|
    |---4-4--4-4--4--3-3--3-3-5-6------|
    |---2-2--2-2--2--1-1--1-1-3-4------|
    |----------------------------------|
        * *  * *  ^  * *  *
    
    ( finished)
    |----------------------------------|
    |----------------------------------|
    |----------------------------------|
    |---4-4--4-4--4--------------------|
    |---2-2--2-2--2--------------------|
    |----------------------------------|
    

    Тональность:

    Нет текста!



    Назад
    Рекомендуем посмотреть другие песни исполнителя «Deathstars»:

    • Комментарии Facebook ()
    • Комментарии ВКонтакте



    Добавить в Избранное Браузера
    Сохранить здесь Очистить


    x

    0


    +
    -

    +
    -

    -

    Авторизация





    Зарегистрироваться

    M

    Дата и время

    • 15:35:46
       

    Социальные ссылки


    Наши приложения

    • Muzbank App Play Market
    • Muzbank Amazon App