MUZBANK



A Most Complete Bank Of Music Information

МУЗЫКАЛЬНО-ИНФОРМАЦИОННЫЙ БАНК

Поиск по сайту







    DDeathstars • Little Angel (аккорды и текст - chords & lyrics)


    494

    Print

    Видео «Little Angel (Deathstars)»

    Видео клипы к песне подбираются автоматически сайтом youtube. Возможны некоторые несоответствия клипов песне.

    ↑ Спрятать рекламу ↑



    Download


    Stand here for me angel
    Oh little child so broken and wild
    Bear not life on your shoulders
    just kiss it one last time
    
    Was the music to loud for you
    too raw to be true
    Were the abstracts too dark for you
    I beg you now to
    
    Watch the sky so bright
    See all its light... fade
    
    Here I am
    Was it everything you spoke of
    Oh little angel
    Here I am
    Was it everything you dreamed of
    Oh little angel
    
    Bow down for me heavenly one
    Shed not those tears my little friend
    Fear not God anymore
    because you'll find him in my arms
    
    Was the volume too high for you
    too touch for the blue
    Were desires too dark for you
    too good to be true
    
    Watch the sky so bright
    See all its light... fade
    
    Here I am
    Was it everything you spoke of
    Oh little angel
    Here I am
    Was it everything you dreamed of
    Oh little angel
    
    Tell me now how your wings got broken
    Tell me now how your spine got whipped by leather
    Tell me now how your tounge got spilt
    Tell me all the things you need to tell to drift away
    
    Watch the sky so bright, see all its light
    Watch the sky so full of light
    For the last time so bright...
    
    Here I am
    Was it everything you spoke of
    Oh little angel
    Here I am
    Was it everything you dreamed of
    Oh little angel
    
    Intro-Main
    |-------------------------------------------|
    |-------------------------------------------|
    |-------------------------------------------|
    |--5---5----------0---1---1----------4------| 
    |--5---5--5-555---0---1---1--1-111---4------|
    |--5---5--5-555---0---1---1--1-111---4------|
    
    Prechorus
    |--------------------------------------------------|
    |--------------------------------------------------|
    |--------------------------------------------------|
    |--5--5-555-555-555--5--7--7-777-777-777--7--------|
    |--3--3-333-333-333--3--5--5-555-555-555--5--------|
    |--------------------------------------------------|
            **  **  **           **  **  ** 
    
    
    |--------------------------------------------------|
    |--------------------------------------------------|
    |--------------------------------------------------|
    |--8--8-888-888-888--8--10-10-101010-101010-101010-|
    |--6--6-666-666-666--6--8--8--8-8-8--8-8-8--8-8-8--|
    |--------------------------------------------------|
            **  **  **            * *    * *    * *  
    
    
    Chorus Main Riff
    |-------------------------------------------|
    |-------------------------------------------|
    |-------------------------------------------|
    |--5---5----------0---1---1----------4------| 
    |--5---5--5-555---0---1---1--1-111---4------|
    |--5---5--5-555---0---1---1--1-111---4------|
                **                 **  
                                                    x2
    |-------------------------------------------|
    |-------------------------------------------|
    |-------------------------------------------|
    |--5---5----------0---1---1-----------------| 
    |--5---5--5-555---0---1---1--1-111-444------|
    |--5---5--5-555---0---1---1--1-111-444------|
                **                 **  ** 
    

    Тональность:

    Нет текста!



    Назад
    Рекомендуем посмотреть другие песни исполнителя «Deathstars»:

    • Комментарии Facebook ()
    • Комментарии ВКонтакте



    Добавить в Избранное Браузера
    Сохранить здесь Очистить


    x

    0


    +
    -

    +
    -

    -

    Авторизация





    Зарегистрироваться

    M

    Дата и время

    • 15:00:12
       

    Социальные ссылки


    Наши приложения

    • Muzbank App Play Market
    • Muzbank Amazon App