MUZBANK



A Most Complete Bank Of Music Information

МУЗЫКАЛЬНО-ИНФОРМАЦИОННЫЙ БАНК

Поиск по сайту







    DDeathstars • Play god (аккорды и текст - chords & lyrics)


    440

    Print

    Видео «Play god (Deathstars)»

    Видео клипы к песне подбираются автоматически сайтом youtube. Возможны некоторые несоответствия клипов песне.

    ↑ Спрятать рекламу ↑



    Download


    I, I wanna play God
    With you
    I, I wanna rule you
    
    Dead starlight bleeds down on the Devil's nitrate
    All the nerves of the patients bathe in shock and shame
    Cause I'm the trigger пусковая схема that'll start this game
    
    And the strike of the night will trash the skyline
    And the darken marks I've put in your skin
    
    'Cause I wanna play God
    I wanna play God with you
    I, I wanna rule all
    Rule you
    
    The human cattle lick on the ethical nightsticks
    All the tears of the victims run on cold cheeks' meat
    Cause it's a future that'll feed on sheep
    
    And the strike of the night will trash the skyline
    And the darken mark some put've in your skin
    
    'Cause I wanna play God
    I wanna play God with you
    I, I wanna rule all
    Rule you
    
    'Cause I wanna play God
    I wanna play God with you
    I, I wanna rule all
    Rule you
    
    Let's play a game of two
    I'll play God and you'll play you
    Let's play a game tonight
    I'll play Dark and you'll play Light
    
    I want to play God with you
    I wanna rule you
    
    And the strike of the night will trash the skyline
    And the darken mark some've put in your skin
    
    'Cause I want to play
    
    I, I want to play God
    I, I want to rule all
    Rule you
    
    'Cause I wanna play
    
    'Cause I wanna play
    
    'Cause I want to play God, God, God, God
    'Cause I wanna play
    'Cause I wanna play
    'Cause I want to play God, God, God, God
    
    Let's play a game tonight
    I'll play Dark and you'll play...
    
    
    
    
    Drop C Tuning (CGCFAD)
    
    * = Palm Mute
    @ = Pinched harmonic
    x = muted
    
    
    
    interlude rythm
    |---------------------------------------------------------|
    |---------------------------------------------------------|
    |---------------------------------------------------------|
    |---------------------------------------------------------| x2
    |--10--10-10--10-10---10-10-10--9--5--6--6-6-6-6--5-6--9--|
    |--10--10-10--10-10---10-10-10--9--5--6--6-6-6-6--5-6--9--|
              *      *                       * *   *
    
    & piano solo 
       
    D||---5----5----4---------|-------5----4---------|----------------------|
    A||------------------5----|--6--------------5----|--6----6----5---------|
    F||*----------------------|----------------------|-----------------6----|
    C||*----------------------|----------------------|----------------------|
    G||-----------------------|----------------------|----------------------|
    C||-----------------------|----------------------|----------------------|
                                                      
    ------------------2--4---|
    -------6----5--3---------|
    --7---------------------*|
    ------------------------*|
    -------------------------|
    -------------------------|
    
    
    Verse 1
    0:42
    |---------------------------------------|
    |---------------------------------------|
    |---------------------------------------|
    |--5-5----5--5----5-5----5--5-----------|
    |--5-5----5--5----5-5----5--5-----------|
    |--5-5--5-5--5----5-5--5-5--5--6@-------|
             *             *
    |---------------------------------------|
    |---------------------------------------|
    |---------------------------------------|
    |--5-5----5--5----5-5----5--5--6--------|
    |--5-5----5--5----5-5----5--5--6--------|
    |--5-5--5-5--5----5-5--5-5--5--6--------|
             *             *
    
    Pre-chorus
    0:57
    |-------------------------------------------------------|
    |-------------------------------------------------------|
    |-------------------------------------------------------|
    |--3--5--6--8---5-5----5-5-----5-5----------------------|
    |--3--5--6--8---3-3--3-3-3--3--3-3----------------------|
    |--3--5--6--8-------------------------------------------|
                         *      *
    |-------------------------------------------------------|
    |-------------------------------------------------------|
    |-------------------------------------------------------|
    |--3--5--6--8---5-5----5-5-----5-5----------------------|
    |--3--5--6--8---5-5----5-5-----5-5----------------------|
    |--3--5--6--8---5-5--5-5-5--5--5-5----------------------|
                         *      *
    
    Chorus
    1:11
    
    |---------------------------------------------------------|
    |---------------------------------------------------------|
    |---------------------------------------------------------|
    |---------------------------------------------------------|
    |--10----10-9--5-6--8--3-----10----10-9--5-6--3---8-------|
    |--10----10-9--5-6--8--3-----10----10-9--5-6--3---8-------|
    
    
    Verse 2
    1:25
    
    |---------------------------------------|
    |---------------------------------------|
    |---------------------------------------|
    |--5-5----5--5----5-5----5--5-----------|
    |--5-5----5--5----5-5----5--5-----------|
    |--5-5--5-5--5----5-5--5-5--5--6@-------|
             *             *
    |---------------------------------------|
    |---------------------------------------|
    |---------------------------------------|
    |--5-5----5--5----5-5----5--5-----------|
    |--5-5----5--5----5-5----5--5-----------|
    |--5-5--5-5--5----5-5--5-5--5-----------|
             *             *
    
    
    Pre-chorus
    1:39
    
    |-------------------------------------------------------|
    |-------------------------------------------------------|
    |-------------------------------------------------------|
    |--3--5--6--8---5-5----5-5-----5-5----------------------|
    |--3--5--6--8---3-3--3-3-3--3--3-3----------------------|
    |--3--5--6--8-------------------------------------------|
                         *      *
    |-------------------------------------------------------|
    |-------------------------------------------------------|
    |-------------------------------------------------------|
    |--3--5--6--8---5-5----5-5-----5-5----------------------|
    |--3--5--6--8---5-5----5-5-----5-5----------------------|
    |--3--5--6--8---5-5--5-5-5--5--5-5----------------------|
                         *      *
    
    Chorus
    1:53
    
    |---------------------------------------------------------|
    |---------------------------------------------------------|
    |---------------------------------------------------------|
    |---------------------------------------------------------| x2
    |--10----10-9--5-6--8--3-----10----10-9--5-6--3---8-------|
    |--10----10-9--5-6--8--3-----10----10-9--5-6--3---8-------|
    
    
    Intro Riff
    2:22
    
    |---------------------------------------------------------|
    |---------------------------------------------------------|
    |---------------------------------------------------------|
    |---------------------------------------------------------| x2
    |--10--10-10--10-10---10-10-10--9--5--6--6-6-6-6--5-6--9--|
    |--10--10-10--10-10---10-10-10--9--5--6--6-6-6-6--5-6--9--|
              *      *                       * *   *
    
    Bridge
    2:35
    |-------------------------------------------------------|
    |-------------------------------------------------------|
    |-------------------------------------------------------|
    |---3----5--------3----5--------------------------------|
    |---3----5--------3----5-----/6--5----------------------|
    |---3----5--------3----5--------------------------------|
    
    
    Pre-chorus
    3:04
    
    |-------------------------------------------------------|
    |-------------------------------------------------------|
    |-------------------------------------------------------|
    |--3--5--6--8---5-5----5-5-----5-5----------------------|
    |--3--5--6--8---3-3--3-3-3--3--3-3----------------------|
    |--3--5--6--8-------------------------------------------|
                         *      *
    |-------------------------------------------------------|
    |-------------------------------------------------------|
    |-------------------------------------------------------|
    |--3--5--6--8---5-5----5-5-----5-5----------------------|
    |--3--5--6--8---5-5----5-5-----5-5----------------------|
    |--3--5--6--8---5-5--5-5-5--5--5-5----------------------|
                         *      *
    
    Chorus (1 whole step up)
    3:19
    |---------------------------------------------------------|
    |---------------------------------------------------------|
    |---------------------------------------------------------|
    |---------------------------------------------------------| x2
    |--12----12-11--7-8--10--5----12--10---12-11--7-8--5---10-|
    |--12----12-11--7-8--10--5----12--10---12-11--7-8--5---10-|
    
    
    Bridge
    3:50
    |-------------------------------------------------------|
    |-------------------------------------------------------|
    |-------------------------------------------------------|
    |---5----7--------5----7--------------------------------|
    |---5----7--------5----7--------------------------------|
    |---5----7--------5----7-----/3--2----------------------|
    
    		
    

    Тональность:

    Нет текста!



    Назад
    Рекомендуем посмотреть другие песни исполнителя «Deathstars»:

    • Комментарии Facebook ()
    • Комментарии ВКонтакте



    Добавить в Избранное Браузера
    Сохранить здесь Очистить


    x

    0


    +
    -

    +
    -

    -

    Авторизация





    Зарегистрироваться

    M

    Дата и время

    • 03:00:56
       

    Социальные ссылки


    Наши приложения

    • Muzbank App Play Market
    • Muzbank Amazon App