MUZBANK



A Most Complete Bank Of Music Information

МУЗЫКАЛЬНО-ИНФОРМАЦИОННЫЙ БАНК

Поиск по сайту







    DDeep Purple • Lazy (аккорды и текст - chords & lyrics)


    392

    Print

    Видео «Lazy (Deep Purple)»

    Видео клипы к песне подбираются автоматически сайтом youtube. Возможны некоторые несоответствия клипов песне.

    ↑ Спрятать рекламу ↑



    Download



    Solo:
    
    E|---------------------------|--------------3------------------|
    B|--------------------------6|6-6-3-6-3---3---3----------------|
    G|----3---5-3-----3---5-3----|----------6-------6_5_3---5---3--|
    D|3=5---5-----5-3---5-----5--|------------------------5---5---5|
    A|---------------------------|---------------------------------|
    E|---------------------------|---------------------------------|
    
    E|-----6-8-6-8---|---6-8-9_8_6---8---6-|---10-10-9-8-10---|
    B|---8---------8-|-8-----------8---8---|-8--------------8-|
    G|-7-------------|---------------------|------------------|
    D|---------------|---------------------|------------------|
    A|---------------|---------------------|------------------|
    E|---------------|---------------------|------------------|
    
    E|---------------|
    B|-11-11-8-11----|
    G|------------10-|
    D|---------------|
    A|---------------|
    E|---------------|
    
    E|------------------------------|
    B|----------------------------6-|
    G|------3---5-3-----3---5-3-----|
    D|-3==5---5-----5-3---5-----5---|
    A|------------------------------|
    E|------------------------------|
    
    E|---------------3-----------------|
    B|-6-6-3-6-3---3---3---------------|
    G|-----------6-------6-5-3-------6-|
    D|-------------------------5-3-5---|
    A|---------------------------------|
    E|---------------------------------|
    
    E|----------------------------|
    B|----------------------------|
    G|----------------------------|
    D|------3---5-3-----3---5-3---|
    A|-4==5---5-----4-5---5-----5-|
    E|----------------------------|
    
    E|----------------------------------|
    B|----------------------------------|
    G|----------------------------------|
    D|----------------------3-----------|
    A|-4==5-4---4-3---3-4-5---5_4_3---3-|
    E|--------6-----6---------------6---|
    
    E|------------|-----------------------|
    B|------------|-----------------------|
    G|-5--5--5--5-|-5_6_5_3---3---5_3---3-|
    D|------------|---------5---5-----5---|
    A|------------|-----------------------|
    E|------------|-----------------------|
    
    E|-----3---------------------|-----------10|
    B|---3---6_5_3---------------|-----8---8---|
    G|-6-----------6_5_3---5---3-|-==9---9-----|
    D|-------------------5---5---|-------------|
    A|---------------------------|-------------|
    E|---------------------------|-------------|
    
    E|-10-8-6---8-6~7---------|
    B|--------8---------6-8-8-|
    G|----------------7-------|
    D|------------------------|
    A|------------------------|
    E|------------------------|
    
    E|------------------------------------------|
    B|-8_9_8_6---6--8_9_8_6---6--8_9_8_6---6--8-|
    G|---------7------------7------------7------|
    D|------------------------------------------|
    A|------------------------------------------|
    E|------------------------------------------|
    
    E|-6---8-8-8-6---6-8---|
    B|---8---------8-------|
    G|-------------------5-|
    D|---------------------|
    A|---------------------|
    E|---------------------|
    
    E|---6-8-9_8_6---8-6-9-8-|-6-8-9-8-|---6-8_6-8_6---|
    B|-8-----------8---------|---------|-8-----------8-|
    G|-----------------------|---------|---------------|
    D|-----------------------|---------|---------------|
    A|-----------------------|---------|---------------|
    E|-----------------------|---------|---------------|
    
    E|-6-8_9_8_6---6-8_9_8_6---|
    B|-----------8-----------8-|
    G|-------------------------|
    D|-------------------------|
    A|-------------------------|
    E|-------------------------|
    
    E|---8_6-----------|---------------------------|
    B|-8-----8-6-------|---------------------------|
    G|-----------7-5-3-|-5-3---5-3-----3---5_3---3-|
    D|-----------------|-----5-----5-3---5-----5---|
    A|-----------------|---------------------------|
    E|-----------------|---------------------------|
    
    E|-----3-------------------|
    B|---3---6-3---------------|
    G|-6---------6-5-3---3-5-5-|
    D|-----------------5-------|
    A|-------------------------|
    E|-------------------------|
    
    E|---------------------|-------------|
    B|-3-------------------|-------------|
    G|---5-3---5---5_3---3-|---5_3-------|
    D|-------5---5-----5---|-5-----5-3---|
    A|---------------------|-----------5-|
    E|---------------------|-------------|
    
    VERSES (chords)
    
    Well this is just the singing part:
    
           Gm7  C/G
    You`re lazy
            Gm7
    Just stay in bed
           C
    You`re lazy
                   Gm7
    Just stay in bed
              Bb
    You don`t want no money
    F                 Gm7    D7#9 (ie Purple Haze E down 2 frets)
    You don`t want no bread
    
    Repeat chords for
    
    If you`re drowning you don`t clutch no straw
    If you`re drowning you don`t clutch no straw
    You don`t want to live you don`t want to cry no more
    
    (Harmonica solo)
    
    Well my trying ain`t done no good
    I said my trying ain`t done no good
    You don`t make no effort no not like you should
    
    Lazy you just stay in bed
    Lazy you just stay in bed
    You don`t want no money
    You don`t want no bread
    
    (Guitar solo)
    (blues outro w/harmonica)
    
    This is the chord progression from Lazy:
    
    Gm7 | C/G |  Gm7 | Gm7
    C   | C   |  Gm7 | Gm7
    Bb  | F   |  Gm7 | D7#9
    
    OUTRO (tablature)
    
    Tempo--- Fast blues swing
    
    E|--5------8~-5-----5---7---5--7-------|
    B|-/5---5--------5-----------------5~~-|
    G|-------------------------------------|
    D|-------------------------------------|
    A|-------------------------------------|
    E|-------------------------------------|
    
    E|-5-------5-------5--------5------5-|
    B|----8^10----8^10----8^10-----8^10--|
    G|-----------------------------------|
    D|-----------------------------------|
    A|-----------------------------------|
    E|-----------------------------------|
    
    E|----------------------------------------|
    B|-8--7---5-----------------7--------10~~-|
    G|-----------8--7--5------7--------9------|
    D|---------------------7/9----9/11--------|
    A|----------------------------------------|
    E|----------------------------------------|
    
    E|-10-^-(12 12)---10--8-9---------------------|
    B|----------------------10--------------------|
    G|-------------------------9--8--7---5----7-5-|
    D|--------------------------------------7-----|
    A|--------------------------------------------|
    E|--------------------------------------------|
       Drum break      In Free Time -->
    E|----------------5----------------------------------|
    B|-----------8^10----8-7-5---------------------------|
    G|-------------------------8-7-5---------------------|
    D|-8---7-------------------------7-5-----------------|
    A|-----------------------------------7-6-5---3-------|
    E|----------------------------------------------3--5-|
    

    Тональность:

    Нет текста!



    Назад
    Рекомендуем посмотреть другие песни исполнителя «Deep Purple»:

    • Комментарии Facebook ()
    • Комментарии ВКонтакте



    Добавить в Избранное Браузера
    Сохранить здесь Очистить


    x

    0


    +
    -

    +
    -

    -

    Авторизация





    Зарегистрироваться

    M

    Дата и время

    • 05:23:48
       

    Социальные ссылки


    Наши приложения

    • Muzbank App Play Market
    • Muzbank Amazon App