MUZBANK



A Most Complete Bank Of Music Information

МУЗЫКАЛЬНО-ИНФОРМАЦИОННЫЙ БАНК

Поиск по сайту







    DDeep Purple • Maybe Im A Leo (аккорды и текст - chords & lyrics)


    273

    Print

    Видео «Maybe Im A Leo (Deep Purple)»

    Видео клипы к песне подбираются автоматически сайтом youtube. Возможны некоторые несоответствия клипов песне.

    ↑ Спрятать рекламу ↑



    Download



     
    
    
    1--------------------------| 1 такт
    2--------------------------|
    3--------------------------|   
    4-0/3----------------4/5-3-| 
    5|5-5-3-0-3-5-----5--5-5-3-0-3-5-------| 
    6--------------------------|  
    
    1--------------------------| 2 такт
    2--------------------------|
    3--------------------------|
    4--------------------------|
    5-3------------3-4-pause---|
    6|5-5-3-0-3-5---5--5-5-3-0-------------|
    
    NB – 3 и 4 такт начать со слабой доли!!!
    
    1--------------------------| 3 такт 
    2--------------------------|
    3--------------------------|             
    4--0/3----------------4/5-3|                  
    5|-5-5-3-0-3-5-----5--5-5-3-0-3-5------| 
    6--------------------------|
    
    1--------------------------| 4 такт
    2--------------------------|
    3--------------------------|
    4----------------5---------|
    5--3-------------3--5/6/---|
    6|-5-5-3-0-3-5---5--5-5-3-0-----3/4/---|
    
    
             Peeping round the door I got a big surprise  
    1---------------------------------------|
    2---------------------------------------|
    3---------------------------------------|
    4|/7--7--7--7--7--7--7--7--7--7--7--7--7--7--7--7--7|
    5|/7--7--7--7--7--7--7--7--7--7--7--7--7--7--7--7--7|
    6|/5--5--5--5--5--5--5--5--5--5--5--5--5--5--5--5--5|
    
    1---------------------------|
    2| -------------------------------------|
    3| -------------------------------------|
    4------------------5--------|
    5|5/7-5-3-0-3-5-----5/7-5-3-0--3--5/6---|
    6---3-5---------------3/4---|
    
       Couldn’t see a thing but open skies
    1| -----------------------------------|
    2| -----------------------------------|
    3|/7--7--7--7--7--7--7--7--7--7--7--7-|
    4|/7--7--7--7--7--7--7--7--7--7--7--7-|
    5|/5--5--5--5--5--5--5--5--5--5--5--5-|
    6| -----------------------------------|
    
    
    
    1---------------------------|
    2---------------------------|
    3---------------------------|
    4------------------5--------|
    5|5/7-5-3-0-3-5-----5/7-5-3-0--3--5/6---|
    6---3-5---------------3/4---|
    
       They’ve taken her away where is  she  now?
    1---------------------------------------------|
    2---------------------------------------------|
    3|/9--9--9--9--9--9--9--9---7----5---4----------7-7---7-7-|
    4|/9--9--9--9--9--9--9--9---7----5---4----7-----7-7---7-7-|
    5|/7--7--7--7--7--7--7--7---5----3---2----7-----5-5---5-5-|
    6-----------------------------5---------------|
    
    Конец первого куплета.
    
    Далее как сначала… потом идет «неподбираемое» соло, затем
    Второй куплет – 1-2-3-4 такты + то же самое со следующими словами:
    
    Wish that she was here wish she’d hold my hand
    Maybe she could laugh maybe understand
    Why was I so cruel where is she now?
    
    Третий куплет аналогично.
    
    Acting like a fool had to make her cry
    Maybe I’m a Leo but I ain’t a lion
    I’m hurting oh so bad, I want her now.
    
    Окончание: 1+2 такт – далее много-много раз 3+4.
    
    
    PS Одна из лучших песен Deep Purple – Maybe I’m a Leo, но табов для гитары почему-то 
    нигде нету в интернете (есть для баса и даже для ударных) – пришлось подбирать самому, 
    надеюсь оцените…
     

    Тональность:

    Нет текста!



    Назад
    Рекомендуем посмотреть другие песни исполнителя «Deep Purple»:

    • Комментарии Facebook ()
    • Комментарии ВКонтакте



    Добавить в Избранное Браузера
    Сохранить здесь Очистить


    x

    0


    +
    -

    +
    -

    -

    Авторизация





    Зарегистрироваться

    M

    Дата и время

    • 01:28:49
       

    Социальные ссылки


    Наши приложения

    • Muzbank App Play Market
    • Muzbank Amazon App