MUZBANK



A Most Complete Bank Of Music Information

МУЗЫКАЛЬНО-ИНФОРМАЦИОННЫЙ БАНК

Поиск по сайту







    DDeep Purple • Rat Bat Blue (аккорды и текст - chords & lyrics)


    242

    Print

    Видео «Rat Bat Blue (Deep Purple)»

    Видео клипы к песне подбираются автоматически сайтом youtube. Возможны некоторые несоответствия клипов песне.

    ↑ Спрятать рекламу ↑



    Download



     
    
    
    TITLE: Rat Bat Blue         by:   Deep Purple      ALBUM: 
    TABBED by hawkhuff
    
    
    
      Intro:   4X
    G-------------------------|
    D-------------------------|
    A---775--75--5h7--775--75-|
    E--0----7--77----0----7---|
    
      Verse:   2X
    G--------------|-----5-----------------|
    D--------------|----5------------------|
    A--------------|-5h7---75353-35356-53--|
    E--55555555555-|------------5--------5-|
    
    
    G--------------------------|-----5-----------------|---------|
    D--------------------------|----5------------------|---------|
    A--5555555555------55555---|-5h7---75353-35356-53--|-7-5-53--|
    E------------223344--------|------------5--------5-|-------5-|
    
    Repeat intro 4X then verse (basically the same way).
    Then intro 4X then to bridge:
    
     Bridge: 6X        6X                    6X
    G----------------|----------------------|-------|
    D----------------|----------------------|-------|
    A-------3-----3--|-------3------3-------|---357-|
    E--0-3h5-5-3h5-5-|--0-3h5-55-3h5-555555-|-55----|
    
      Outro from Bridge 3X
    G---------------------|-------------------|
    D---------------------|-77777-75----------|
    A---3577/-------------|---------75h35h3---|
    E--5------------------|----------------5-5|
    
     Intro: 4X 
     Verse: repeat
     Intro: 8X then fade 
    
    
    questions:   hawkhuff@msn.com
     

    Тональность:

    Нет текста!



    Назад
    Рекомендуем посмотреть другие песни исполнителя «Deep Purple»:

    • Комментарии Facebook ()
    • Комментарии ВКонтакте



    Добавить в Избранное Браузера
    Сохранить здесь Очистить


    x

    0


    +
    -

    +
    -

    -

    Авторизация





    Зарегистрироваться

    M

    Дата и время

    • 15:37:35
       

    Социальные ссылки


    Наши приложения

    • Muzbank App Play Market
    • Muzbank Amazon App