MUZBANK



A Most Complete Bank Of Music Information

МУЗЫКАЛЬНО-ИНФОРМАЦИОННЫЙ БАНК

Поиск по сайту







    DDefault • Deny (аккорды и текст - chords & lyrics)


    251

    Print

    Видео «Deny (Default)»

    Видео клипы к песне подбираются автоматически сайтом youtube. Возможны некоторые несоответствия клипов песне.

    ↑ Спрятать рекламу ↑



    Download



     
    
    
    ~=Hold
    =Slide Down
    
    
    Intro 1:
    G: ----------------------
    D: ----------------------
    A: ----------------------
    E: 0-0~10-10-103-3-5-5~5
    
    Intro 2:
    G: -------------------  Just giutar, then on the E string 3~
    D: -------------------
    A: --------3-3~3-3-3~3
    E: 0-0~3-3~-----------
    
    Chorus:
    G: ----------------  Repeat  
    D: ----------------   
    A: 10-8-5~5-3------
    E: -----------3-0~0
    
    Verse:
    G: -------------  Repeat
    D: -------------
    A: ------8-7-3~3
    E: 00-00--------
    
    Bridge:
    G: ----------
    D: ----------
    A: ----------
    E: 0~10~3~5~
    
    Order:
    Intro 1 (1)
    Intro 2 (1)
    Chorus (2)
    Verse (4)
    Chorus (4)
    Verse (4)
    Chorus (4)
    Bridge (4)
    Chorus (4)
    Verse (4)
     

    Тональность:

    Нет текста!



    Назад
    Рекомендуем посмотреть другие песни исполнителя «Default»:

    • Комментарии Facebook ()
    • Комментарии ВКонтакте



    Добавить в Избранное Браузера
    Сохранить здесь Очистить


    x

    0


    +
    -

    +
    -

    -

    Авторизация





    Зарегистрироваться

    M

    Дата и время

    • 13:23:54
       

    Социальные ссылки


    Наши приложения

    • Muzbank App Play Market
    • Muzbank Amazon App