MUZBANK



A Most Complete Bank Of Music Information

МУЗЫКАЛЬНО-ИНФОРМАЦИОННЫЙ БАНК

Поиск по сайту







    DDefault • Wasting My Time (аккорды и текст - chords & lyrics)


    223

    Print

    Видео «Wasting My Time (Default)»

    Видео клипы к песне подбираются автоматически сайтом youtube. Возможны некоторые несоответствия клипов песне.

    ↑ Спрятать рекламу ↑



    Download



     
    
    
    Okay, i read this version in Guitar One and thought i should submit, it is correct, 
    but the solo is pretty hard
    Here goes
    
    Drop D tuning (DADGBE)
    p-pull off
    /-slide
    ^^^^^^-let ring/whammy
    ()-harmonic
    ----------
    ---3------ let it ring and raise volume then stop 
    ----------
    ----------
    ----------
    ----------
    
    ----0----------5------ repeat but at-------5---- do instead
    -2-----3--3------3--0-    -------5p0-----
    -3-----0----0---------
    -0--------------------
    ----------------------
    ----------------------
    
    then you go
    
    --------------------
    --3---3----3--------
    --2---0----2-------- let this all rign throughout
    --0---0----0--------
    --0---x----0--------
    ------3-------------
    
    repeat the first part of the intro next and then repeat what you did, listen to the 
    song for this its easy
    
    
    Chorus:
    
    ------------------------   it helps to bar the notes here
    ------------------------
    ------------------------
    --5--5--5---------------
    --5--5--5--0-5-7-5-0----   repeat once
    --5--5--5---------------
    
    ------------------------
    ------------------------
    ------------------------
    ---9--9-9--------------- 
    ---9--9-9--0-9-12-9-0---
    ---9--9-9---------------
    
    then repeat first part of chorus (the 555 bar part)
    
    then
    
    ------------------------
    ------------------------
    ------------------------
    --7---7--7--------------
    --7---7--7--------------
    --7---7--7--------------
    
    then repeat second part of chorus (999 bar part)
    
    and then you go
    
    ----------------------------------------
    ------------------------------------------
    --------------------------------------------
    --7-------------------------9---------------
    --7--(do this 12 times)----------7-9-7-----
    --7---------------------------7--------7-9-
    
    
    now for the tricky part
    
    Solo:
    it helps to use a whammy pedal 
    --------------------------------------------------------
    -------------------------------------------------------
    ---------------------------------------------------------
    ---------------------------------------------------------
    ---5-5-7--5--5--7-7-5-7-5-5-5--7/9-9-9/10-10-10-9/10-9---
    --------------------------------------------------------0-
    
    ------------------------------------------------------
    ------------------------------------------------------
    -----------------------------------------------------
    ------------------------------2----------------2--------
    ------4---7-----4-5-2-0-2-4-2-0---4--5-2-4--2--0-------
    ----0---0-----------------------------------------------
    
    ------------------------------------------
    ----------------------------------------^^^^^^^^^^^
    ------------------------------7-7-x-9---7-8-7--7-8--
    ---5-7-7-7-7-7-5-4-5-4-5/7-7----------9---
    ------------------------------------------
    ------------------------------------------
    
    -------------------------------------
    -------------------------------------
    -------------------------------------
    -------------------------------------
    ------4------7-------------------------
    ---0------0----------------------------
    
    
     1-|--|---|  
       |  |   |
    ---7--7--(7)-------------------------------
    --------------10--8--7--8-8--7-7--(7)------
    -----------------------------------------7--
    --------------------------------------9-----
    -------------------------------------------
    -------------------------------------------
    
    ------------------------
    ------------------------
    ------------------------
    -------------------2----
    ---4--5-----4--2---0----
    ---------5--------------
    
    Go back to verse then the chorus (the coda is the 2nd part of chorus 999 bar part)
    
    Outro
    
    ----0--------5----------0--------5/0-----
    -3----3--3------3-0--3-----3---3------3--0-
    -2----0----0---------2-----0-------------
    -0-------------------0-------------------
    -----------------------------------------
    -----------------------------------------
                                          fade out volume here
    ------0-----------5-------------0-------3----
    --3------3--3-------3--0------3---3-----3--------
    --2------0-----0------------2-------0---0------
    --0-----------------------0-------------0---
    -----------------------------------------
    -----------------------------------------
    
    thats about it, any questions please email me at exodusm2000@hotmail.com thnx
     

    Тональность:

    Нет текста!



    Назад
    Рекомендуем посмотреть другие песни исполнителя «Default»:

    • Комментарии Facebook ()
    • Комментарии ВКонтакте



    Добавить в Избранное Браузера
    Сохранить здесь Очистить


    x

    0


    +
    -

    +
    -

    -

    Авторизация





    Зарегистрироваться

    M

    Дата и время

    • 19:26:47
       

    Социальные ссылки


    Наши приложения

    • Muzbank App Play Market
    • Muzbank Amazon App