MUZBANK



A Most Complete Bank Of Music Information

МУЗЫКАЛЬНО-ИНФОРМАЦИОННЫЙ БАНК

Поиск по сайту







    DDeficient • Hated And Feared (аккорды и текст - chords & lyrics)


    170

    Print

    Видео «Hated And Feared (Deficient)»

    Видео клипы к песне подбираются автоматически сайтом youtube. Возможны некоторые несоответствия клипов песне.

    ↑ Спрятать рекламу ↑



    Download


     
    
    
    INTRO
    ----------------------------------------|----|
    ----------------------------------------|----|
    ----------------------------------------|-0--|
    ---332-2-----332-2-----332-2-----332-2--|-2--|
    002---3-3-002---3-3-002---3-3-002---3-3-|-2--|
    ----------------------------------------|----|
    
    VERSE
    ----------------------------------------|
    ----------------------------------------|
    --------------101010101010-999999-------|
    777777-999999-101010101010-999999-------|
    777777-999999--8-8-8-8-8-8-777777-------|
    555555-777777---------------------------|
    
    BRIDGE
    ---------------------------|
    ---------------------------|
    -------5----444444-5-------|
    777777-5-55-444444-5-55----|
    777777-3-55-222222-3-55----|
    555555---33----------33----|
    
    CHORUS
    -----------------------------|
    -----------------------------|
    -----4444-10101010-77-55-----|
    5555-4444-10101010-77-55-----|
    5555-2222--8-8-8-8-55-33-----|
    3333-------------------------|
    
     

    Тональность:

    Нет текста!



    Назад
    Рекомендуем посмотреть другие песни исполнителя «Deficient»:

    • Комментарии Facebook ()
    • Комментарии ВКонтакте



    Добавить в Избранное Браузера
    Сохранить здесь Очистить


    x

    0


    +
    -

    +
    -

    -

    Авторизация





    Зарегистрироваться

    M

    Дата и время

    • 00:21:55
       

    Социальные ссылки


    Наши приложения

    • Muzbank App Play Market
    • Muzbank Amazon App