MUZBANK



A Most Complete Bank Of Music Information

МУЗЫКАЛЬНО-ИНФОРМАЦИОННЫЙ БАНК

Поиск по сайту







    DDeftones • Around The Fur (аккорды и текст - chords & lyrics)


    321

    Print

    Видео «Around The Fur (Deftones)»

    Видео клипы к песне подбираются автоматически сайтом youtube. Возможны некоторые несоответствия клипов песне.

    ↑ Спрятать рекламу ↑



    Download


     
    
    
    Deftones
    Around The Fur
    
    Tab by Lirikal
    
    
     h=HammerOn
     p=PullOff
     =slide
    
    
    INTRO & VERSE:
    
                    Db5      B5          G5    x4                  Db5      B5
    eb-|-----------------------------------------|-----------------------------
    Bb-|-----------------------------------------|-----------------------------
    Gb-|*---------------------------------------*|-----------------------------
    Db-|*-----------12-12-12-10-10-10-10-6-6-6--*|--10h12p10h12p10-12-12-12-10-
    Ab-|------------12-12-12-10-10-10-10-6-6-6---|--10h12p10h12p10-12-12-12-10-
    Db-|---0-0-0-0--12-12-12-10-10-10-10-6-6-6---|--10h12p10h12p10-12-12-12-10-
    
                G5
    eb-----------------
    Bb-----------------
    Gb-----------------
    Db-10-10-10-6-6-6--
    Ab-10-10-10-6-6-6--
    Db-10-10-10-6-6-6--
    
    
                    Db5       B5         G5    x3     Db5
    eb-|-----------------------------------------|----------
    Bb-|-----------------------------------------|----2-----
    Gb-|*---------------------------------------*|----3-----
    Db-|*-----------12-12-12-10-10-10-10-6-6-6--*|----0-----
    Ab-|------------12-12-12-10-10-10-10-6-6-6---|----0-----
    Db-|---0-0-0-0--12-12-12-10-10-10-10-6-6-6---|----0-----
    
    
    CHORUS:
    
           Db5  E5              F5              C5              x3
    eb-|----------------------------------------------------------|--------
    Bb-|----------------------------------------------------------|--------
    Gb-|*---------------------------------------6-6-6-6-6-6-6-6--*|--------
    Db-|*--0-0--3-3-3-3-3-3-3-3-4-4-4-4-4-4-4-4-6-6-6-6-6-6-6-6--*|--------
    Ab-|---0-0--3-3-3-3-3-3-3-3-4-4-4-4-4-4-4-4-4-4-4-4-4-4-4-4---|--------
    Db-|---0-0--3-3-3-3-3-3-3-3-4-4-4-4-4-4-4-4-------------------|--------
    
    
        Db5  E5              Eb5                             Db5
    eb--------------------------------------------------------------
    Bb-------------------------------------------------------2------
    Gb-------------------------------------------------------3------
    Db--0-0--3-3-3-3-3-3-3-3-2-2-2-2-2-2-2-2-2-2-2-2-2-2-2-2-0------
    Ab--0-0--3-3-3-3-3-3-3-3-2-2-2-2-2-2-2-2-2-2-2-2-2-2-2-2-0------
    Db--0-0--3-3-3-3-3-3-3-3-2-2-2-2-2-2-2-2-2-2-2-2-2-2-2-2-0------
    
    
    OUTRO:
    
           Db5               B5          G5    x8     
    eb-|-----------------------------------------|-----------------------
    Bb-|-----------------------------------------|-----------------------
    Gb-|*---------------------------------------*|-----------------------
    Db-|*--0-0-0-0-0-0-0-0-0-10-10-10-10-6-6-6--*|-----------------------
    Ab-|---0-0-0-0-0-0-0-0-0-10-10-10-10-6-6-6---|-----6--4--5----------
    Db-|---0-0-0-0-0-0-0-0-0-10-10-10-10-6-6-6---|-----------------6-----
     

    Тональность:

    Нет текста!



    Назад
    Рекомендуем посмотреть другие песни исполнителя «Deftones»:

    • Комментарии Facebook ()
    • Комментарии ВКонтакте



    Добавить в Избранное Браузера
    Сохранить здесь Очистить


    x

    0


    +
    -

    +
    -

    -

    Авторизация





    Зарегистрироваться

    M

    Дата и время

    • 19:34:09
       

    Социальные ссылки


    Наши приложения

    • Muzbank App Play Market
    • Muzbank Amazon App