MUZBANK



A Most Complete Bank Of Music Information

МУЗЫКАЛЬНО-ИНФОРМАЦИОННЫЙ БАНК

Поиск по сайту







    DDeftones • Be Quiet And Drive (аккорды и текст - chords & lyrics)


    173

    Print

    Видео «Be Quiet And Drive (Deftones)»

    Видео клипы к песне подбираются автоматически сайтом youtube. Возможны некоторые несоответствия клипов песне.

    ↑ Спрятать рекламу ↑



    Download



     
    
    
    Person: cyprian
    
    song: Be Quiet And Drive (Far Away)
    
    artist: Deftones
    
    tab: Listen to the song for beat and rhythem.
    Tuning - Drop 1/2 step and drop d... Db Ab Db Gb Bb Eb
    
    Intro/Fill
    E-4-4-4-4-/--9-9-9-9-|
    B-0-0-0-0-/--0-0-0-0-|
    G-2-2-2-2-/--7-7-7-7-|
    D-0-0-0-0-/--0-0-0-0-|
    A--------------------|
    D--------------------|
    
    Lick during main...
    E--------------|
    B--------------|
    G-11-12-12-14--|
    D-x--x--x--x---|
    A-9--10-10-12--|
    D-x--x--x--x---|
    
    Main Riff
    E---------------------------------------|
    B---------------------------------------|
    G-11-11-11-11-11-11--11-11-11-11-11-11--|
    D-x--x--x--x--x--x---11-11-11-11-11-11--|
    A-9--9--9--9--9--9---9--9--9--9--9--9---|
    D-0--0--0--0--0--0---9--9--9--9--9--9---|
    
    Solo Riff
    E------------------------------|
    B------------------------------|
    G-11-11-x-x-11-11-11-12-12-12--|
    D-x--x--x-x-11-11-11-12-12-12--|
    A-9--9--x-x-9--9--9--10-10-10--|
    D-0--0--x-x-9--9--9--10-10-10--|
     

    Тональность:

    Нет текста!



    Назад
    Рекомендуем посмотреть другие песни исполнителя «Deftones»:

    • Комментарии Facebook ()
    • Комментарии ВКонтакте



    Добавить в Избранное Браузера
    Сохранить здесь Очистить


    x

    0


    +
    -

    +
    -

    -

    Авторизация





    Зарегистрироваться

    M

    Дата и время

    • 04:16:10
       

    Социальные ссылки


    Наши приложения

    • Muzbank App Play Market
    • Muzbank Amazon App