MUZBANK



A MOST COMPLETE BANK OF MUSIC INFORMATION

МУЗЫКАЛЬНО-ИНФОРМАЦИОННЫЙ БАНК







    DDeftones • Change (аккорды и текст - chords & lyrics)


    266

    Print

    Видео «Change (Deftones)»

    Видео клипы к песне подбираются автоматически сайтом youtube. Возможны некоторые несоответствия клипов песне.

    ↑ Спрятать рекламу ↑






     
    
    
    artist:Deftones
    song:change(in the house of flies)
    album:white pony
    tabbed by:asteroth420
    my email is at hydraninja@yahoo.com
    
    drop D tuning
    
    D------------------------------------------|
    A------------------------------------------|
    F-10-10-10--10-10-10--10-10-10--10-10-10---|
    C------------------------------------------|
    G-8--8--8---8--8--8---8--8--8---8--8--8----|
    C-0--0--0---0--0--0---0--0--0---0--0--0----|
    
    D------------------------------------------|
    A------------------------------------------|
    F------------------------------------------|
    C-5-5-5--8-8-8--7-7-7--8-8-8--8-7-6-5------|
    G-5-5-5--5-5-5--5-5-5--5-5-5--5-5-5-5------|
    C-5-5-5--5-5-5--5-5-5--5-5-5--5-5-5-5------|
     

    Тональность:

    Это должно быть в ТОП-листе! - Топ-лист композиций



    Назад
    Рекомендуем посмотреть другие песни исполнителя «Deftones»:

    • Комменты Fb ()
    • Комменты ВК



    Добавить в Избранное Браузера
    Сохранить здесь Очистить


    x

    0


    +
    -

    +
    -

    -

    Авторизация





    Зарегистрироваться

    M

    Дата и время

    • 00:38:55
       

    Социальные ссылки


    Наши приложения

    • Muzbank App Play Market
    • Muzbank Amazon App