MUZBANK



A Most Complete Bank Of Music Information

МУЗЫКАЛЬНО-ИНФОРМАЦИОННЫЙ БАНК

Поиск по сайту







    DDeftones • Change In The House Of Flies (аккорды и текст - chords & lyrics)


    267

    Print

    Видео «Change In The House Of Flies (Deftones)»

    Видео клипы к песне подбираются автоматически сайтом youtube. Возможны некоторые несоответствия клипов песне.

    ↑ Спрятать рекламу ↑



    Download


     
    
    
    Band: Deftones
    Song: Change(In the House of Flies)
    cd: White Pony
    Transcribed by: Mike(Munky1879@aol.com)
    
    listenin to the song for the timing, im pretty sure this is right
    tuning(low to high):C,G,C,F,A,D
    ~=vibrato
    
    intro: clean electric
    D|-------------------------------------------------|
    A|-------------------------------------------------|
    F|10-10-10-10-10-10-10-10-10-10-10-10-10-10--------|
    C|-------------------------------------------------|
    G|-8--8--8--8--8--8--8--8--8--8--8--8--8--8--------|
    C|-0--------0--------0--------0-----0-----0--------|
    
    D|-------------------------------------------------|
    A|-------------------------------------------------|
    F|-------------------------------------------------|
    C|-5-5-5-8-8-8-7-7-7-8-8-8-7-7-7-------------------|
    G|-5-5-5-5-5-5-5-5-5-5-5-5-5-5-5-------------------|
    C|-5-5-5-5-5-5-5-5-5-5-5-5-5-5-5-------------------|
    
    chorus: heavy distortion
    D|-------------------------------------------------|
    A|-------------------------------------------------|
    F|-7-7-7-7-7-7-7-7-7-7-7-7-7-7-7-7-----------------|
    C|-5-5-5-5-5-5-5-5-5-5-5-5-5-5-5-5-----------------|
    G|-5-5-5-5-5-5-5-5-5-5-5-5-5-5-5-5-----------------|
    C|-0-0-0-0-0-0-0-0-0-0-0-0-0-0-0-0-----------------|
    
    D|-------------------------------------------------|
    A|-------------------------------------------------|
    F|10-10-10-10-10-10-10-10-10-10-10-10-10-10-10-10--|
    C|10-10-10-10-10-10-10-10-10-10-10-10-10-10-10-10--|
    G|-8--8--8--8--8--8--8--8--8--8--8--8--8--8--8--8--|
    C|-8--8--8--8--8--8--8--8--8--8--8--8--8--8--8--8--|
    
    Bridge:heavy distortion
    D|-------------------------------------------------|
    A|-------------------------------------------------|
    F|-5-5-5-5-5-5-5-5-5-5-----------------------------|
    C|-3-3-3-3-3-3-3-3-3-3-----------------------------|
    G|-3-3-3-3-3-3-3-3-3-3-----------------------------|
    C|-3-3-3-3-3-3-3-3-3-3-----------------------------|
    
    D|-------------------------------------------------|
    A|-------------------------------------------------|
    F|-7-7-7-7-7-7-7-7-7-7-7-7-7-7-7-7-----------------|
    C|-7-7-7-7-7-7-7-7-7-7-7-7-7-7-7-7-----------------|
    G|-5-5-5-5-5-5-5-5-5-5-5-5-5-5-5-5-----------------|
    C|-0-0-0-0-0-0-0-0-0-0-0-0-0-0-0-0-----------------|
    fill 1
    D|-------------------------------------------------|
    A|-------------------------------------------------|
    F|-5-5-5-5-5-5-5-5-5-5-----------------------------|
    C|-3-3-3-3-3-3-3-3-3-3-----------------------------|
    G|-3-3-3-3-3-3-3-3-3-3-----------------------------|
    C|-3-3-3-3-3-3-3-3-3-3-----------------------------|
    
    interlude: echo effect and light distortion
    D|-------------------------------------------------|
    A|-------------------------------------------------|
    F|-------------------------------------------------|
    C|----8-7---7---------8-7-----7--------------------|
    G|-5------8---8-8--5------8-7-7-8------------------|
    C|-5------------0--5------------0------------------|
    
    D|-------------------------------------------------|
    A|-------------------------------------------------|
    F|-------------------------------------------------|
    C|----8-7---7---------8-7--------------------------|
    G|-5------8---8-8--5------8-7~~--------------------|
    C|-5------------0--5-------------------------------|
    
    Outro: heavy distortion
    D|-------------------------------------------------|
    A|-------------------------------------------------|
    F|10--10--10--10--10101010-------------------------|
    C|-------------------------------------------------|
    G|-8---8---8---8---8-8-8-8-------------------------|
    C|-0---0---0---0---0-0-0-0-------------------------|
    
    D|-------------------------------------------------|
    A|-------------------------------------------------|
    F|-------------------------------------------------|
    C|-5---5---8---8---8-8-8-8-------------------------|
    G|-5---5---5---5---5-5-5-5-------------------------|
    C|-5---5---5---5---5-5-5-5-------------------------|
    
    fill 2
    D|-------------------------------------------------|
    A|-------------------------------------------------|
    F|10--10--10--10--10101010-------------------------|
    C|-------------------------------------------------|
    G|-8---8---8---8---8-8-8-8-------------------------|
    C|-0---0---0---0---0-0-0-0-------------------------|
    
    D|-------------------------------------------------|
    A|-------------------------------------------------|
    F|-------------------------------------------------|
    C|-5---5---8---------------------------------------|
    G|-5---5---5-let ring------------------------------|
    C|-5---5---5---------------------------------------|
    
    song order
    intro 6x
    chorus 4x
    intro 4x
    chorus 4x
    bridge 3x with fill 1
    interlude
    intro 4x with heavy distortion
    chorus 4x
    bridge 3x with fill 1
    outro 3x with fill 2
    
    thats it. its a pretty simple song but it sounds great to play.
    well i hope the order is right and if u have any questions, corrections,
    or comments email me. my email is up above. enjoy.
     

    Тональность:

    Нет текста!



    Назад
    Рекомендуем посмотреть другие песни исполнителя «Deftones»:

    • Комментарии Facebook ()
    • Комментарии ВКонтакте



    Добавить в Избранное Браузера
    Сохранить здесь Очистить


    x

    0


    +
    -

    +
    -

    -

    Авторизация





    Зарегистрироваться

    M

    Дата и время

    • 01:23:27
       

    Социальные ссылки


    Наши приложения

    • Muzbank App Play Market
    • Muzbank Amazon App