MUZBANK



A Most Complete Bank Of Music Information

МУЗЫКАЛЬНО-ИНФОРМАЦИОННЫЙ БАНК

Поиск по сайту







    DDeftones • Feiticiera (аккорды и текст - chords & lyrics)


    250

    Print

    Видео «Feiticiera (Deftones)»

    Видео клипы к песне подбираются автоматически сайтом youtube. Возможны некоторые несоответствия клипов песне.

    ↑ Спрятать рекламу ↑



    Download


     
    
    
    Ok heres another song i had previously tabbed out but had
    forgotten to post it.So here is Feiticiera
    
    TUNING: down one full step and drop d (C-G-C-F-A-D)
    
    
         RIFF 1: (Intro)
    
                                
        D|---------------------------------------------------------|
        A|-------------12----------12-12---------------------------|
        F|-11-11-11-11----11-11-11-------11-11-11------------------|
        C|-11-11-11-11----11-11-11-------11-11-11-11/12-11/12-11/0-|
        G|-9--9--9--9-----9--9--9--------9--9--9--11/12-11/12-11/0-|
        C|----------------------------------------11/12-11/12-11/0-|
    
                 
        D|---------------------------|
        A|-------12------------------|
        F|-11-11-x--11-11------------|
        C|-11-11-x--11-11-11/12-15-0-|
        G|-9--9--x--9--9--11/12-15-0-|
        C|----------------11/12-15-0-|
    
         RIFF 2: (Verse)
    
        D|---------------------------------|
        A|---------------------------------|
        F|-6-6-6-6-6-6-6-6-6-6-6-6---------|
        C|-6-6-6-6-6-6-6-6-6-6-6-6-6/7-7-0-|
        G|-4-4-4-4-4-4-4-4-4-4-4-4-6/7-5-0-|
        C|-------------------------6/7---0-|
    
         RIFF 3: (Chorus)
    
        D|--------------------------|
        A|--------------------------|
        F|-10--10^r--6-(5)--(11)-10-|
        C|-----10^r-----------------|
        G|-8----8^r--4-(3)--(9)--8--|
        C|--------------------------|
    
         RIFF 4: (Interlude)
    
                  
        D|---------------------|
        A|---------------------|
        F|-----------7.5-(16x)-|
        C|-7.5-(16x)-----------|
        G|---------------------|
        C|---------------------|
    
         RIFF 5: (Chorus)
    
        D|-------------------------------------------------------------------------|
        A|-------------------------------------------------------------------------|
        F|-10-10-10-10-10-10-10-10-10-10-10-10-10-10-10-10-6-6-6-6-6-6-6-6-6-6-6-6-|
        C|-------------------------------------------------------------------------|
        G|-8--8--8--8--8--8--8--8--8--8--8--8--8--8--8--8--4-4-4-4-4-4-4-4-4-4-4-4-|
        C|-------------------------------------------------------------------------|
     

    Тональность:

    Нет текста!



    Назад
    Рекомендуем посмотреть другие песни исполнителя «Deftones»:

    • Комментарии Facebook ()
    • Комментарии ВКонтакте



    Добавить в Избранное Браузера
    Сохранить здесь Очистить


    x

    0


    +
    -

    +
    -

    -

    Авторизация





    Зарегистрироваться

    M

    Дата и время

    • 23:37:56
       

    Социальные ссылки


    Наши приложения

    • Muzbank App Play Market
    • Muzbank Amazon App