MUZBANK



A Most Complete Bank Of Music Information

МУЗЫКАЛЬНО-ИНФОРМАЦИОННЫЙ БАНК

Поиск по сайту







    DDeftones • Head Up (аккорды и текст - chords & lyrics)


    266

    Print

    Видео «Head Up (Deftones)»

    Видео клипы к песне подбираются автоматически сайтом youtube. Возможны некоторые несоответствия клипов песне.

    ↑ Спрятать рекламу ↑



    Download



     
    
    
    Band: Deftones
    Album: Around the fur
    Song: Headup (9)
    Tapped by MrGentlman@aol.comDrop Db (or C#) Tuning
    
    
    Riff 1 (verse)
    
    G |---------------------|
    D |---------------------|   Repeat ?x
    A |---------------------|  
    Db|-2-1-0-1-0-1-0-1-0-1-|
    
    
    Riff 2 (chorus)
    
    G |-------------------------|
    D |-------------------------|   Repeat ?x
    A |-------------------------|   
    Db|-8--8--8-9-10-11-8--8----|
    
    
    Between Riff 2 and Riff 3 play this note
    
    G |---------|
    D |---------|
    A |---------|
    Db|-2-------|
    
    
    Riff 3 (bridge)
    
    G |---------------------------------|
    D |---------------------------------| Repeat ?x
    A |---------------------------------|
    Db|-1-1-0-1--1-1/6-2-2-0-2--2-2-0-2-|
    
    
    Riff 4 (autro)
    
    G |--------------------------| 
    D |--------------------------| fade out
    A |--------------------------|
    Db|-8-10-8----/12-10-8-10----|
     

    Тональность:

    Нет текста!



    Назад
    Рекомендуем посмотреть другие песни исполнителя «Deftones»:

    • Комментарии Facebook ()
    • Комментарии ВКонтакте



    Добавить в Избранное Браузера
    Сохранить здесь Очистить


    x

    0


    +
    -

    +
    -

    -

    Авторизация





    Зарегистрироваться

    M

    Дата и время

    • 12:52:57
       

    Социальные ссылки


    Наши приложения

    • Muzbank App Play Market
    • Muzbank Amazon App