MUZBANK



A MOST COMPLETE BANK OF MUSIC INFORMATION

МУЗЫКАЛЬНО-ИНФОРМАЦИОННЫЙ БАНК







    DDeftones • Mascara (аккорды и текст - chords & lyrics)


    368

    Print

    Видео «Mascara (Deftones)»

    Видео клипы к песне подбираются автоматически сайтом youtube. Возможны некоторые несоответствия клипов песне.

    ↑ Спрятать рекламу ↑






     
    
    
    TABBED BY: ALTON CHAVEZ
    D-A-D-G-B-E
    
    (0:00,-0:27,-0:52,-1:42)
    E[------------------------------]
    B[------------------------------] FIRST
    G[------------------------------] THREE TIMES
    D[-----------0------------------]
    A[-------------0----------------]
    D[--8/7----4-----4--------------]
    (0:21,-1:11,-2:01)
    E[------------------------------]
    B[------------------------------]
    G[------------------------------] FOURTH TIME
    D[-----------0------5-----------]
    A[-------------0----------------]
    D[--8/7----4-----4--------------]
    (1:17,-2:07)
    E[------------------------------]
    B[------------------------------]
    G[------------------------------] FOUR TIMES
    D[-88888888-777-5-77-55---------]
    A[-88888888-777-5-77-55---------]
    D[-88888888-777-5-77-55---------]
    (2:54)
    E[------------------------------]
    B[------------------------------]
    G[-4-----1----------------------]
    D[-4-----1----------------------]
    A[-4-----1----------------------]
    D[-4-----2----------------------]
    (3:00)
    E[------------------------------]
    B[------------------------------]
    G[-1----------------------------] TIMES
    D[---1--------------------------]
    A[-----1------------------------]
    D[-------2----------------------]
     

    Тональность:

    Это должно быть в ТОП-листе! - Топ-лист композиций



    Назад
    Рекомендуем посмотреть другие песни исполнителя «Deftones»:

    • Комменты Fb ()
    • Комменты ВК



    Добавить в Избранное Браузера
    Сохранить здесь Очистить


    x

    0


    +
    -

    +
    -

    -

    Авторизация





    Зарегистрироваться

    M

    Дата и время

    • 22:40:52
       

    Социальные ссылки


    Наши приложения

    • Muzbank App Play Market
    • Muzbank Amazon App