MUZBANK



A Most Complete Bank Of Music Information

МУЗЫКАЛЬНО-ИНФОРМАЦИОННЫЙ БАНК

Поиск по сайту







    DDeftones • Minerva (аккорды и текст - chords & lyrics)


    313

    Print

    Видео «Minerva (Deftones)»

    Видео клипы к песне подбираются автоматически сайтом youtube. Возможны некоторые несоответствия клипов песне.

    ↑ Спрятать рекламу ↑



    Download



     
    
    
    Artist: Deftones
    Song: Minerva
    Album: Deftones
    Tuning: G# Eb Ab Db Gb Bb (best played with 7string)
    or get some really hard strings for your 6
    
    Intro/Bridge/Outro
    Intro play #1 and 2 ---twice
    Outro play #1 ---- four times
    Bridge play #1,then 3, then 1 and 2
    
    #1
    Bb------------------------------------------------------------------------
    Gb-14-14-14-14---17-17-17-17-17-17-17-17-17-17-17-17-17-17-17-17-17-------
    Db--0--0--0--0---14-14-14-14-14-14-14-14-14-14-14-14-14-14-14-14-14-------
    Ab------------------------------------------------------------------------
    Eb------------------------------------------------------------------------
    G#------------------------------------------------------------------------
    #2
    Bb------------------------------------------------------------------------
    Gb-14-14-14-14-14-14-14-14-14-14-14-14-14-14-14-14------------------------
    Db--0--0--0--0--0--0--0--0--0--0--0--0--0--0--0--0------------------------
    Ab------------------------------------------------------------------------
    Eb------------------------------------------------------------------------
    G#------------------------------------------------------------------------
    #3
    Bb------------------------------------------------------------------------
    Gb--17-17-17--17-17-17-17-17-17-17-17-17-17-17-17-------------------------
    Db--14--0--0--14-14-14-14-14-14-14-14-14-14-14-14-------------------------
    Ab------------------------------------------------------------------------
    Eb------------------------------------------------------------------------
    G#------------------------------------------------------------------------
    Verse
    Guitar 1
    
    Bb--8-8-10-10-10-10-10-10-10-7-7-7-7-7-7-7---------------------------------
    Gb--x-x--x--x--x--x--x--x--x-x-x-x-x-x-x-x---------------------------------
    Db--5-5--7--7--7--7--7--7--7-4-4-4-4-4-4-4---------------------------------
    Ab-------------------------------------------------------------------------
    Eb-------------------------------------------------------------------------
    G#-------------------------------------------------------------------------
    
    Guitar 2
    Bb-------------------------------------------------------------------------
    Gb-------------------------------------------------------------------------
    Db--7-7-7-7-7-7-7-7---11-11-11-11-11-11-11-11-11---------------------------
    Ab--5-5-5-5-5-5-5-5----9--9--9--9--9--9--9--9--9----------------------------
    Eb--5-5-5-5-5-5-5-5----9--9--9--9--9--9--9--9--9----------------------------
    G#--5-5-5-5-5-5-5-5----9--9--9--9--9--9--9--9--9----------------------------
    
    Chorus
    Bb--------------------------------------------------------------------------
    Gb--------------------------------------------------------------------------
    Db--12-12-12-12-12-12-12-12-9-9-9-9-9-9-9-9-9-------------------------------
    Ab--10-10-10-10-10-10-10-10-7-7-7-7-7-7-7-7-7-------------------------------
    Eb--10-10-10-10-10-10-10-10-7-7-7-7-7-7-7-7-7-------------------------------
    G#--10-10-10-10-10-10-10-10-7-7-7-7-7-7-7-7-7-------------------------------
    
    (play this in 2,3 verses, not played in 1)
    Bb-------------------------------------------------------------------------
    Gb-------------------------------------------------------------------------
    Db---7-7-7-7-7-7-7-7-7-7-7-7-7-7-7-----------------------------------------
    Ab---5-5-5-5-5-5-5-5-5-5-5-5-5-5-5-----------------------------------------
    Eb---5-5-5-5-5-5-5-5-5-5-5-5-5-5-5-----------------------------------------
    G#---5-5-5-5-5-5-5-5-5-5-5-5-5-5-5-----------------------------------------
    
    Good song...yes
    think this is the right tuning...cus i remember an article in guitarworld..
    talkin about them tuning to G# for the new album..so there
     

    Тональность:

    Нет текста!



    Назад
    Рекомендуем посмотреть другие песни исполнителя «Deftones»:

    • Комментарии Facebook ()
    • Комментарии ВКонтакте



    Добавить в Избранное Браузера
    Сохранить здесь Очистить


    x

    0


    +
    -

    +
    -

    -

    Авторизация





    Зарегистрироваться

    M

    Дата и время

    • 08:56:22
       

    Социальные ссылки


    Наши приложения

    • Muzbank App Play Market
    • Muzbank Amazon App