MUZBANK



A Most Complete Bank Of Music Information

МУЗЫКАЛЬНО-ИНФОРМАЦИОННЫЙ БАНК

Поиск по сайту







    DDeftones • My Own Summer (аккорды и текст - chords & lyrics)


    170

    Print

    Видео «My Own Summer (Deftones)»

    Видео клипы к песне подбираются автоматически сайтом youtube. Возможны некоторые несоответствия клипов песне.

    ↑ Спрятать рекламу ↑



    Download



     
    
    
    Artist: Deftones
    Album: Around The Fur
    Song: My Own Summer(Shove It)
    
    yeeeah so, these are correct tabs to the almighty Deftones most bestest song ever, next to be quiet and drive.
    
    make sure to drop d tune of course
    
    here goes nothin.... 
    
    intro:
    e:--------------------------------    
    b:--------------------------------
    g:--------------------------------  like about 8x or so
    d:--------------------------------
    a:--------------------------------
    d:-0-10-11-0-10-7-0-7-0-7-6-0-7-4-
    
    chorus:
    e:--------------------------------
    b:--------------------------------
    g:--------------------------------  like about 4x or so
    d:-0-6-7-0-7-4-0-4-0-4-6-0-6-3----
    a:-0-6-7-0-7-4-0-4-0-4-6-0-6-3----
    d:-0-6-7-0-7-4-0-4-0-4-6-0-6-3----
    
    after the chorus it goes...
    e:--------------------------------
    b:--------------------------------
    g:-8-8-8-8-8-8-8-8-8-8-8-8-8-8-8-8  like about a lot of 
    d:-7-7-7-7-7-7-7-7-7-7-7-7-7-7-7-7  times or so
    a:-7-7-7-7-7-7-7-7-7-7-7-7-7-7-7-7
    d:-7-7-7-7-7-7-7-7-7-7-7-7-7-7-7-7
    
    e:--------------------------------
    b:--------------------------------
    g:--------------------------------  
    d:-4-4-4-7-0-4-4-4-7-7-7-0--------  
    a:-4-4-4-7-0-4-4-4-7-7-7-0--------
    d:-4-4-4-7-0-4-4-4-7-7-7-0--------
     

    Тональность:

    Нет текста!



    Назад
    Рекомендуем посмотреть другие песни исполнителя «Deftones»:

    • Комментарии Facebook ()
    • Комментарии ВКонтакте



    Добавить в Избранное Браузера
    Сохранить здесь Очистить


    x

    0


    +
    -

    +
    -

    -

    Авторизация





    Зарегистрироваться

    M

    Дата и время

    • 03:29:53
       

    Социальные ссылки


    Наши приложения

    • Muzbank App Play Market
    • Muzbank Amazon App