MUZBANK



A Most Complete Bank Of Music Information

МУЗЫКАЛЬНО-ИНФОРМАЦИОННЫЙ БАНК

Поиск по сайту







    DDeftones • Pink Maggit (аккорды и текст - chords & lyrics)


    362

    Print

    Видео «Pink Maggit (Deftones)»

    Видео клипы к песне подбираются автоматически сайтом youtube. Возможны некоторые несоответствия клипов песне.

    ↑ Спрятать рекламу ↑



    Download


     
    
    
    No Special Tuning.
    Pink Maggit
    White Pony-Deftones
    Tabbed by kyle hayes
    
    Intro
    E---------------------------
    B---------------------------
    G--------------3----0-------
    D-----6-------5------------5
    A---6--------3-----3------3-
    E-4---------------1------3-
    
    repeat this alot, then some times he does this:
    E---------------                    E-----------------
    B---------------                    B-----------------
    G-------------3-  then the new part G-----------------
    D-----6-----5----                   D-----------------
    A---6-----3-----                    A---3-5--3h5-6-5-2
    E-4-------------                    E-1---------------
    
    Chorus:
    
    E-------------------------------
    B-------------------------------
    G-------------------------------
    D----------5-5-5-5--------------
    A-6-6-6-6--3-3-3-3--3-3-3-3--3p2
    E-4-4-4-4-----------1-1-1-1--1p0
    
    do that alot and your done. Any questions email me at lazyhaze69@hotmail.com
     

    Тональность:

    Нет текста!



    Назад
    Рекомендуем посмотреть другие песни исполнителя «Deftones»:

    • Комментарии Facebook ()
    • Комментарии ВКонтакте



    Добавить в Избранное Браузера
    Сохранить здесь Очистить


    x

    0


    +
    -

    +
    -

    -

    Авторизация





    Зарегистрироваться

    M

    Дата и время

    • 21:03:12
       

    Социальные ссылки


    Наши приложения

    • Muzbank App Play Market
    • Muzbank Amazon App