MUZBANK



A Most Complete Bank Of Music Information

МУЗЫКАЛЬНО-ИНФОРМАЦИОННЫЙ БАНК

Поиск по сайту







    DDepeche Mode • A Pain That Im Used To (аккорды и текст - chords & lyrics)


    380

    Print

    Видео «A Pain That Im Used To (Depeche Mode)»

    Видео клипы к песне подбираются автоматически сайтом youtube. Возможны некоторые несоответствия клипов песне.

    ↑ Спрятать рекламу ↑



    Download


    Guitar 1
    e|-----------------------------------------|
    B|-----------------------------------------|
    G|-----------------------------------------|
    D|-----------------------------------------|
    A|---5-/16^--⁄5-/16^--⁄5-/16^--⁄5-/16^-----|
    E|-----------------------------------------|
    
    
    Guitar 1
    e|-----------------------------------------|
    B|-----------------------------------------|
    G|-----------------------------------------|
    D|-----------------------------------------|
    A|---5-/16^--⁄5-/16^--⁄5-/16^--⁄5-/16^-----|
    E|-----------------------------------------|
    
    While Bas(Synth) play
    e|-----------------------------------------|
    B|-----------------------------------------|
    G|-----------------------------------------|
    D|-----------------------------------------|
    A|--⁄5~~~~~~~~~~~~~~~~~~~~~~~~~~~~~~~~~~~~~|
    E|-----------------------------------------|
    
    
    Guitar 1
    
    e|-----------------------------------------|
    B|-----------------------------------------|
    G|-----------------------------------------|
    D|-----------------------------------------|
    A|----55555-555-8-5-8----------------------| Repeat 8 times
    E|-----------------------------------------|
    
    
    This part starts after 4 times of the riff above
    
    Guitar 2(synth)
    e|-----------------------------------------|
    B|----15---13------------------------------|
    G|--------------15-14-10-------------------|
    D|-----------------------------------------|
    A|-----------------------------------------|
    E|-----------------------------------------|
    
    
    
    Verse
    
    I'm not sure...
    D5
    e|-----------------------------------------|
    B|-----------------------------------------|
    G|-----------------------------------------|
    D|-----------------------------------------|
    A|----55555-555-8-5-8---55555-555-8-5-8----|
    E|-----------------------------------------|
    
    C# D5
    e|-----------------------------------------|
    B|-----------------------------------------|
    G|-----------------------------------------|
    D|-----------------------------------------|
    A|----44444-444-8-4-8---55555-555-8-5-8----|
    E|-----------------------------------------|
    (2X)
    
    
    Stick
    
    e|---------------------------------------------------------------|
    B|---------------------------------------------------------------|
    G|------------------------------------------9--7----------9--10--|
    D|-----------10--8----------10---------------------10--7---------|
    A|--------8----------12--8---------------8-----------------------|
    E|----10----------------------------/10--------------------------|
    (2X)
    
    (Repeat Verse)
    
    
    chorus
    
    D5 F5
    All this running around, well it's getting me down
    A#5 G5
    Just give me a pain that I'm used to
    
    D5 F5
    I don't need to believe all the dreams you conceive
    A#5 G5
    You just need to achieve something that rings true
    
    
    (First Riff)
    
    
    (Verse)
    
    
    - (stick)
    
    
    (verse)
    
    
    -(chorus)2X
    
    
    (first riff)
    

    Тональность:

    Нет текста!



    Назад
    Рекомендуем посмотреть другие песни исполнителя «Depeche Mode»:

    • Комментарии Facebook ()
    • Комментарии ВКонтакте



    Добавить в Избранное Браузера
    Сохранить здесь Очистить


    x

    0


    +
    -

    +
    -

    -

    Авторизация





    Зарегистрироваться

    M

    Дата и время

    • 01:26:48
       

    Социальные ссылки


    Наши приложения

    • Muzbank App Play Market
    • Muzbank Amazon App