MUZBANK



A Most Complete Bank Of Music Information

МУЗЫКАЛЬНО-ИНФОРМАЦИОННЫЙ БАНК

Поиск по сайту







    DDeus • Little Arithmetics (аккорды и текст - chords & lyrics)


    230

    Print

    Видео «Little Arithmetics (Deus)»

    Видео клипы к песне подбираются автоматически сайтом youtube. Возможны некоторые несоответствия клипов песне.

    ↑ Спрятать рекламу ↑



    Download


     
    
    
    Little Arithmetics
    
    tab by Nadja Weber & Avi
    
    -----
    Bass 
    -----
       ________
      / Intro       
    G|----------|---------|---------|-------------|
    D|----------|---------|---------|-------------|
    A|-12/0-0-0-|-0h3-3-3-|-3/5-5-5-|-------------|
    E|----------|---------|---------|-0h3-3-3-3-3-|
                       all verses               /
           ____________________________________/
    
    
    Chorus - 
    G|------|---------|------|------|
    D|------|---------|------|------|
    A|-3...-|-2-------|------|------|
    E|------|---3-3-3-|-5...-|-1...-|
    
    Outro - 
    the only thing I could get was this repeating riff ...
    G|----------------|
    D|-12p10----------|
    A|-------12-12/14-|
    E|----------------|
     

    Тональность:

    Нет текста!



    Назад
    Рекомендуем посмотреть другие песни исполнителя «Deus»:

    • Комментарии Facebook ()
    • Комментарии ВКонтакте



    Добавить в Избранное Браузера
    Сохранить здесь Очистить


    x

    0


    +
    -

    +
    -

    -

    Авторизация





    Зарегистрироваться

    M

    Дата и время

    • 14:43:42
       

    Социальные ссылки


    Наши приложения

    • Muzbank App Play Market
    • Muzbank Amazon App