MUZBANK



A Most Complete Bank Of Music Information

МУЗЫКАЛЬНО-ИНФОРМАЦИОННЫЙ БАНК

Поиск по сайту







    DDickinson Bruce • The Ghost Of Cain (аккорды и текст - chords & lyrics)


    300

    Print

    Видео «The Ghost Of Cain (Dickinson Bruce)»

    Видео клипы к песне подбираются автоматически сайтом youtube. Возможны некоторые несоответствия клипов песне.

    ↑ Спрятать рекламу ↑



    Download


     
    
    
    Song: The Ghost Of Cain 
    Artist: Bruce Dickinson 
    Album: Accident Of Birth 
    Written By Bruce Dickinson and Roy Z 
    
    Tabbed & transcribed by Ricardo Bustos O. 
    email: RBO567@Hotmail.com 
    
    Here goes another good Bruce song 
    
    Send comments! 
    
    
    intro solo 
    
    along with this guitar the other plays the chorus 
    riff. 
    
    E--------------------------------------------- 
    B--/22*--21*--19*--17*------------22*--21*---- 
    G----------------------18*-16**---------------- 
    D--------------------------------------------- 
    A--------------------------------------------- 
    E--------------------------------------------- 
    
    
    
    E-----19-21*--21*-21*-19---------------------- 
    B--22-------------------22*-21*-----19---22*-- 
    G---------------------------------18--18------ 
    D--------------------------------------------- 
    A--------------------------------------------- 
    E--------------------------------------------- 
    
    
    
    E--------------------------------------------- 
    B--21*--19*--17*------------------------------ 
    G-----------------18*--16**-----14-16-18-14-16 
    D--------------------------------------------- 
    A--------------------------------------------- 
    E--------------------------------------------- 
    
    
    E--------------------------------------------- 
    B-------------------------17-------17-------17 
    G-18-19-16-18-19-16-18-19----18-19----18-19--- 
    D--------------------------------------------- 
    A--------------------------------------------- 
    E--------------------------------------------- 
    
    
    
    E--------------------------------------------- 
    B-19----17-19----17-19-21-17-19-21-17-19-21-22 
    G----19-------19------------------------------ 
    D--------------------------------------------- 
    A--------------------------------------------- 
    E--------------------------------------------- 
    
    
    
    E-19-21**----19/17*/-------------------------- 
    B--------------------------------------------- 
    G--------------------------------------------- 
    D--------------------------------------------- 
    A--------------------------------------------- 
    E--------------------------------------------- 
    
    
    Riff 1 with heavy distortion 
    
    
    
    E--------------------------------------------- 
    B--------------------------------------------- 
    G----------5-------7--7-----------5-------7--7 
    D--2/4--22-5--2222-7--7---2/4--22-5--2222-7--7 
    A--2/4--22-3--2222-5--5---2/4--22-3--2222-5--5 
    E--0/2--44----4444--------0/2--44----4444----- 
    
            pm     pm              pm     pm 
    
    E--------------------------------------------- 
    B--------------------------------------------- 
    G--------------------------------------------- 
    D--4444--4444--44----4444--4444--44----------- 
    A--------------------------------------------- 
    E--------------------------------------------- 
    
    
      Pre-chorus Riff 
    
    E-------------------0---------------------------- 
    B---------------------0-------------------------- 
    G--4---4---4-3-2----------7--7--77-9--9--9-10-9-7 
    D--4---4---4-3-2-3--------7--7--77-9--9--9-10-9-7 
    A--2---2---2-1-0-3--------5--5--55-7--7--7-8--7-5 
    E----------------1------------------------------- 
    
    
    E-------------------0---------------------------- 
    B---------------------0-------------------------- 
    G--4---4---4-3-2----------7--7--77--------------- 
    D--4---4---4-3-2-3--------7--7--77-2222222------- 
    A--2---2---2-1-0-3--------5--5--55-2222222------- 
    E----------------1-----------------0000000------- 
    
    
      Chorus Riff  (repeat it) 
    
    E--------------------------------------------- 
    B--------------------------------------------- 
    G-----------------------2-----2222------------ 
    D--4---4-4---4---2---2--2-----2222------------ 
    A--4---4-4---4---2---2--0-----0000------------ 
    E--2---2-2---2---0---0------------------------ 
    
    
    After playing for the second time the chorus: 
    
    With some distortion 
    
    E------5-------7---------9------------------------ 
    B-----5-------7---------9----9----------9--------- 
    G----7-------9--------11-------11----11---11----11 
    D---7-------9-------11------------11---------11--- 
    A--5-------7-------9------------------------------ 
    E------------------------------------------------- 
    
    
    E------5-------7---------9------------------------ 
    B-----5-------7---------9------------------------- 
    G----7-------9--------11-----11-11-11-11-11-11---- 
    D---7-------9-------11-------11-11-11-11-11-11---- 
    A--5-------7-------9---------9--9--9--9--9--9----- 
    E------------------------------------------------- 
    
    
    SOLO (with full distortion) 
    
    E----------------------------------------------- 
    B----------------------------------------------- 
    G---8--9--11----9--8--9--8---------------------- 
    D---------------------------11p9--11*----------- 
    A----------------------------------------11-11p9 
    E----------------------------------------------- 
    
    
    
    E---------------------------------------------- 
    B---------------5/14**-----12--14----16--17--19 
    G---------------------------------------------- 
    D---------------------------------------------- 
    A--7--9*--------------------------------------- 
    E---------------------------------------------- 
    
    
    
    E---------12/21--21-21-21-21---21/19--19--19*/- 
    B-19*------------------------------------------ 
    G---------------------------------------------- 
    D---------------------------------------------- 
    A---------------------------------------------- 
    E---------------------------------------------- 
    
      The other guitar plays this while the solo: 
    
    (repeat it) 
    
    E--------------------------------------------- 
    B--------------------------------------------- 
    G--6--6-6-6--6---4--4---9--------------------- 
    D--6--6-6-6--6---4--4---9--------------------- 
    A--4--4-4-4--4---2--2---7--------------------- 
    E--------------------------------------------- 
    
          pm 
    
    Then comes the drums solo and then play the chorus riff
     

    Тональность:

    Нет текста!



    Назад
    Рекомендуем посмотреть другие песни исполнителя «Dickinson Bruce»:

    • Комментарии Facebook ()
    • Комментарии ВКонтакте



    Добавить в Избранное Браузера
    Сохранить здесь Очистить


    x

    0


    +
    -

    +
    -

    -

    Авторизация





    Зарегистрироваться

    M

    Дата и время

    • 20:57:31
       

    Социальные ссылки


    Наши приложения

    • Muzbank App Play Market
    • Muzbank Amazon App