MUZBANK



A Most Complete Bank Of Music Information

МУЗЫКАЛЬНО-ИНФОРМАЦИОННЫЙ БАНК

Поиск по сайту







    ДДиДюЛя • Фламенко (аккорды и текст - chords & lyrics)


    688

    Print

    Видео «Фламенко (ДиДюЛя)»

    Видео клипы к песне подбираются автоматически сайтом youtube. Возможны некоторые несоответствия клипов песне.

    ↑ Спрятать рекламу ↑



    Download


    обозначения:
    Har.    - флажолет
    ~~10~   - послушайте ДиДюЛю и все поймете
    
    Har.
    е||-4-5-7-----~~10~---10-8-7-8-7h8p7⁄5-7-5-4---------------------0--0---|
    B||-0-------------------------------------------6-5-3---5--------0----0-|
    G||-4-------------------------------------------------5---4------2------|
    D||-2-------------------------------------------------------5----3------|
    а||-----------------------------------------------------------5~-3------|
    е||-------12--------------------------------0---------------------------|
    
    е|0--0----0-0--0----12⁄--4h5p4-0-------------------------0-1-4-1--0-|
    B|0----0--0--0-0-----------------5-----------------0-1-4------------|
    G|1-------2----1-------------------4-2-1h2p1p0-1-2------------------|
    D|2-------3----2----------------------------------------------------|
    а|2-------3----2----------------------------------------------------|
    е|------------------------------------------------------------------|
    
    (это только последовательность аккордов того, что играется -
    - ритм возьмите y ДиДюЛи:)
    е|0---1-0----0---1-0----5--3--1--0---5--3--1--0--1--0--1--5-|
    B|0---1-0----0---1-0----5--3--1--0---5--3--1--0--1--0--1--5-|
    G|1---2-1----1---2-1----5--4--2--1---5--4--2--1--2--1--2--5-|
    D|2---3-2----2---3-2----7--5--3--2---7--5--3--2--3--2--3--7-|
    а|2---3-2----2---3-2----7--5--3--2---7--5--3--2--3--2--3--7-|
    е|----------------------------------------------------------|
    
    (синтезатор на фоне)
    е|---------------------------|
    B|---------------------------|
    G|---------------------------|
    D|---------------------------|
    а|--------7-7~----------7-7~-|
    е|0---5h7-------0---5h7------|
    
    е||-12⁄--4h5p4-0-------------------------------0h1-4-1h4-0-----0---0---|
    B||--------------5-----------------0-1-1h4-1-0-------------5-4---4-----|
    G||*---------------4-2-1h2p1p0-1-2-----------------------------------*-|
    D||*-----------------------------------------------------------------*-|
    а||--------------------------------------------------------------------|
    е||--------------------------------------------------------------------|
    

    Тональность:

    Нет текста!



    Назад
    Рекомендуем посмотреть другие песни исполнителя «ДиДюЛя»:

    • Комментарии Facebook ()
    • Комментарии ВКонтакте



    Добавить в Избранное Браузера
    Сохранить здесь Очистить


    x

    0


    +
    -

    +
    -

    -

    Авторизация





    Зарегистрироваться

    M

    Дата и время

    • 16:37:07
       

    Социальные ссылки


    Наши приложения

    • Muzbank App Play Market
    • Muzbank Amazon App