MUZBANK



A Most Complete Bank Of Music Information

МУЗЫКАЛЬНО-ИНФОРМАЦИОННЫЙ БАНК

Поиск по сайту







    DDiecast • Day Of Reckoning (аккорды и текст - chords & lyrics)


    224

    Print

    Видео «Day Of Reckoning (Diecast)»

    Видео клипы к песне подбираются автоматически сайтом youtube. Возможны некоторые несоответствия клипов песне.

    ↑ Спрятать рекламу ↑



    Download


     
    
    
    Band: DIECAST
    Album:Day of Reckoning
    Song: Day of Reckoning
    
    Transcribed by:        Chris Humeniuk
    Email: father_death_666&hotmail.com
    
    Tuning:
    strings 1-5 - 1 step down
    string    6 - 2 steps down
    
    Keys:
     ___ - palm mute
      h  - hammer on
      p  - pull off
     /  - slide
    
    
    INTRO:
    
    |----------------------------|
    |----------------------------|
    |----------------------------|
    |----------------------------|
    |----------------------------|
    |-0--00000--0-0-0--00000-0-0-| 4x
      __________________________
    
    (Gtr 1)
    |---------------------------------------------------------|
    |---------------------------------------------------------|
    |---------------------------------------------------------|
    |---------------------------------------------------------|
    |---------------------------------------------------------|
    |-0--00000--0-0-0--00000-0-0-0-0--00000--0-0-0--00000-0-0-|
      _______________________________________________________
    
    (Gtr 2 - starts off w/pick scrape)
    |---------------------------------------------------------|
    |---------------------------------------------------------|
    |---------------------------------------------------------|
    |----------------------------------------------------6/7--|
    |---------------------3h5-6p5------------------------6/7--|
    |----------------------------------------------------6/7--| 5x
    
    
    RIFF A:
    
    (Gtr 1 & 2)
    |---------------------------------------------------------|
    |---------------------------------------------------------|
    |---------------------------------------------------------|
    |-----------------------------------------------------6/7-|
    |----------------------3h5-6p5------------------------6/7-|
    |-0--00000--0-0-0--0-0---------0--00000--0-0-0--0-0-0-6/7-| 4x
      ____________________         ______________________
    
    
    CHORUS:
    
    |-------------------------------------------------------------
    |-------------------------------------------------------------
    |-------------------------------------------------------------
    |-0--------------3p0---6h7---3-0--------------7/8---8--7-5-7-
    |-0--------------3p0---6h7---3-0--------------5/6---6--5-3-5-
    |-0--0-0-0-0-0-0-3p0-0-6h7-0-3-0--0-0-0-0-0-0-7/8-0-8--7-5-7-
         ___________     _     _      ___________     _
    
     --------------------------------------------------------
     --------------------------------------------------------
     ------------------------------------------87-----------
     -------------3p0---6h7---3-0--------------x-------------
     -------------3p0---6h7---3-0--------------65---4p3-----
     -0-0-0-0-0-0-3p0-0-6h7-0-3-0--0-0-0-0-0-0-----4-----4/5-
      ___________     _     _      ___________     _
    
     ------------------------------------------------------------
     ------------------------------------------------------------
     ------------------------------------------------------------
     -0--------------3p0---6h7---3-0--------------7/8--8--7-5-7--
     -0--------------3p0---6h7---3-0--------------5/6--6--5-3-5--
     -0--0-0-0-0-0-0-3p0-0-6h7-0-3-0--0-0-0-0-0-0-7/8--8--7-5-7--
         ___________     _     _      ___________
    
     ----------------------------------------------------------|
     ----------------------------------------------------------|
     ------------------------------------------87-------------|
     -------------3p0---6h7---3-0--------------x---------------|
     -------------3p0---6h7---3-0--------------65---4p3-------|
     -0-0-0-0-0-0-3p0-0-6h7-0-3-0--0-0-0-0-0-0-----4-----4-5-0-|
      ___________     _     _      ___________     _     _____
    
    
    RIFF B:
    
    |----------------------|     |----------------------|
    |----------------------|     |----------------------|
    |----------------------|     |----------------------|
    |----------------------|     |----------------------|
    |----------------------|     |-----------------0----|
    |-0-0-0--0-0--0-0-0----| 3x  |-0-0-0--0-0--0-0-0----|
      _________________            _____________________
    
    |----------------------|     |-------------------|
    |----------------------|     |-------------------|
    |----------------------|     |-------------------|
    |----------------------|     |-------------------|
    |-0-0-0--0-0--0-0-0----|     |-0-0-0--0-0--0-0-0-|
    |-0-0-0--0-0--0-0-0----| 3x  |-0-0-0--0-0--0-0-0-|
      _____________________        _________________
    
    
    RIFF A - 6x
    
    
    EXTENDED CHORUS:
    
    |-------------------------------------------------------------
    |-------------------------------------------------------------
    |-------------------------------------------------------------
    |-0--------------3p0---6h7---3-0--------------7/8---8--7-5-7-
    |-0--------------3p0---6h7---3-0--------------5/6---6--5-3-5-
    |-0--0-0-0-0-0-0-3p0-0-6h7-0-3-0--0-0-0-0-0-0-7/8-0-8--7-5-7-
         ___________     _     _      ___________     _
    
     --------------------------------------------------------
     --------------------------------------------------------
     ------------------------------------------87-----------
     -------------3p0---6h7---3-0--------------x-------------
     -------------3p0---6h7---3-0--------------65---4p3-----
     -0-0-0-0-0-0-3p0-0-6h7-0-3-0--0-0-0-0-0-0-----4-----4/5-
      ___________     _     _      ___________     _
    
     ------------------------------------------------------------
     ------------------------------------------------------------
     ------------------------------------------------------------
     -0--------------3p0---6h7---3-0--------------7/8--8--7-5-7--
     -0--------------3p0---6h7---3-0--------------5/6--6--5-3-5--
     -0--0-0-0-0-0-0-3p0-0-6h7-0-3-0--0-0-0-0-0-0-7/8--8--7-5-7--
         ___________     _     _      ___________
    
     ----------------------------------------------------------
     ----------------------------------------------------------
     ----------------------------------------------------------
     -------------3p0---6h7---3-0------------------------------
     -------------3p0---6h7---3-0--------------6-5---4-3-------
     -0-0-0-0-0-0-3p0-0-6h7-0-3-0--0-0-0-0-0-0-----4-----4-5-0-
      ___________     _     _      ___________________________
    
     ---------------------------------------------------------------------|
     ---------------------------------------------------------------------|
     ---------------------------------------------------------------------|
     ------------------1-------------------------------------0------------|
     ----6-5---4-3-----1----6-5---4-3----------6-5---4-3-----0------------|
     --------4-----4-5-1--------4-----4-5-0--------4-----4-5-0------------|
         _____________      _______________    _____________
    
    
    INTERLUDE:
    
    |-------------------------------------------------------|
    |-------------------------------------------------------|
    |-------------------------------------------------------|
    |---------0---------------------------------------------|
    |-4-3-----0-------------------------------------4-3-----|
    |-----4-5-0-----------------------------------------4-5-|
      _______                                       _______
    
    |-------------------------------------------------------|
    |-------------------------------------------------------|
    |-------------------------------------------------------|
    |-------------------------------------------------------|
    |-----------------------------------------------4-3-----|
    |-3--1--0--1--0-0-1--0-0-0h1-3--1--0--1--0-0-1------4-5-| 2x
                  ___    ___                 ___    _______
    
    |-------------------------------------------------------|
    |-------------------------------------------------------|
    |-------------------------------------------------------|
    |-------------------------------------------------------|
    |-----------------------------------------------4-3-----|
    |-3--1--0--1--0-0-1--0-0-0-1-3--1--0--1--0-0-1------4-5-| 4x
      _____________________________________________________
    
    |-------------------------------------------------------|
    |-------------------------------------------------------|
    |-------------------------------------------------------|
    |-3--1--0--1------1------0h1-3--1--0--1------1----------|
    |-3--1--0--1------1------0h1-3--1--0--1------1--4-3-----|
    |-3--1--0--1--0-0-1--0-0-0h1-3--1--0--1--0-0-1------4-5-| 4x
                  ___    ___                 ___    _______
    
    
    CHORUS
    
    
    OUTRO:
    
    |-------------------------------------------|
    |-------------------------------------------|
    |-------------------------------------------|
    |-------------------------------------------|
    |--------------------------------------0----|
    |-0-0-0--0-0--0-0-0----0-0-0--0-0--0-0-0----|
      __________________________________________
    
    |----------------------|     |-------------------|
    |----------------------|     |-------------------|
    |----------------------|     |-------------------|
    |----------------------|     |-------------------|
    |-0-0-0--0-0--0-0-0----|     |-0-0-0--0-0--0-0-0-|
    |-0-0-0--0-0--0-0-0----| 7x  |-0-0-0--0-0--0-0-0-|
      _____________________        _________________
     

    Тональность:

    Нет текста!



    Назад
    Рекомендуем посмотреть другие песни исполнителя «Diecast»:

    • Комментарии Facebook ()
    • Комментарии ВКонтакте



    Добавить в Избранное Браузера
    Сохранить здесь Очистить


    x

    0


    +
    -

    +
    -

    -

    Авторизация





    Зарегистрироваться

    M

    Дата и время

    • 13:11:32
       

    Социальные ссылки


    Наши приложения

    • Muzbank App Play Market
    • Muzbank Amazon App