MUZBANK



A Most Complete Bank Of Music Information

МУЗЫКАЛЬНО-ИНФОРМАЦИОННЫЙ БАНК

Поиск по сайту







    DDiecast • Desensitized (аккорды и текст - chords & lyrics)


    222

    Print

    Видео «Desensitized (Diecast)»

    Видео клипы к песне подбираются автоматически сайтом youtube. Возможны некоторые несоответствия клипов песне.

    ↑ Спрятать рекламу ↑



    Download


     
    
    
    Band: DIECAST
    Album:Day of Reckoning
    Song: Desensitized
    
    Transcribed by:        Chris Humeniuk
    Email: father_death_666@hotmail.com
    
    Tuning: (C G C)
    strings 1-5 - 1 step down
    string    6 - 2 steps down
    
    Keys:
     /  - slide
     ___ - palm mute
      b  - bend
      h  - hammer on
    
    
    INTRO:
    
    |-----------------|     |---------------|
    |-----------------|     |---------------|
    |-----------------|     |-6-5-----------|
    |-87-------------|     |-6-5-6---------|
    |-65-3-5-6-5-3-5-|     |-4-3-6---------|
    |-----3-5-6-5-3-5-| 3x  |-----6--000000-| 3x
          ___________                ______
    
    |-----------------|     |-------------|
    |-----------------|     |-------------|
    |-----------------|     |-6-5---------|
    |-87-------------|     |-6-5-6-5-----|
    |-65-3-5-6-5-3-5-|     |-4-3-6-5-----|
    |-----3-5-6-5-3-5-| 3x  |-----6-5-3-5-|
          ___________                 ___
    
    
    VERSE:
    
    |---------------|     |--------------|
    |---------------|     |--------------|
    |---------------|     |--------------|
    |---------3-2-3-|     |--------5-3-2-|
    |---------3-2-3-|     |--------5-3-2-|
    |-0-0--00-3-2-3-| 3x  |0-0--00-5-3-2-| 3x
      _______              _______
    
    |---------------|     |----------------|
    |---------------|     |----------------|
    |---------------|     |----------------|
    |---------3-2-3-|     |--------3-2-3-0-|
    |---------3-2-3-|     |--------3-2-3-0-|
    |-0-0--00-3-2-3-| 3x  |0-0--00-3-2-3-0-|
      _______              _______
    
    (Gtr 2 comes in w/this every so often)
    |--------|
    |-13/15--|
    |--------|
    |--------|
    |--------|
    |--------|
    
    
    CHORUS:
    
    |-----------------|     |---------------|
    |-----------------|     |---------------|
    |-----------------|     |-6-5-----------|
    |-87-------------|     |-6-5-6---------|
    |-65-3-5-6-5-3-5-|     |-4-3-6---------|
    |-----3-5-6-5-3-5-| 3x  |-----6--000000-|
          ___________                ______
    
    |-----------------|     |-------------|
    |-----------------|     |-------------|
    |-----------------|     |-6-5---------|
    |-87-------------|     |-6-5-6-5-----|
    |-65-3-5-6-5-3-5-|     |-4-3-6-5-----|
    |-----3-5-6-5-3-5-| 3x  |-----6-5-3-5-|
          ___________                 ___
    
    
    VERSE
    
    
    INTRO
    
    
    INTERLUDE:
    
    |------------------------------------------------------------|
    |------------------------------------------------------------|
    |----------------------------------------------5-------------|
    |----------------------------------------------5-------------|
    |-----------5b----------------------------3b---3-------------|
    |-0-0-0----------0-0-0-----6b---0-0-0----------3-------------|
      _____          _____          _____
    
    |------------------------------------------------------------|
    |------------------------------------------------------------|
    |------------------------------------------------------------|
    |------------------------------------------------------------|
    |-----------5b----------------------------3b-----------------|
    |-0-0-0----------0-0-0-----6b---0-0-0----------0-0-0---0-3-0-| 3x
      _____          _____          _____          _____________
    
    |------------------------------------------------------------|
    |------------------------------------------------------------|
    |------------------------------------------------------------|
    |------------------------------------------------------------|
    |-----------5b------------(6b)------------3b-----------------|
    |-0-0-0-0-0------0-0-0-----6b---0-0-0----------0-0-0---0-3-0-|
      _________      _____          _____          _____________
    
    |------------------------------------------------------------|
    |------------------------------------------------------------|
    |------------------------------------------------------------|
    |------------------------------------------------------------|
    |-----------5b------------(6b)------------3b-----------------|
    |-0-0-0----------0-0-0-----6b---0-0-0----------0-0-0---0-3-0-|
      _____          _____          _____          _____________
    
    |------------------------------------------------------------|
    |------------------------------------------------------------|
    |------------------------------------------------------------|
    |------------------------------------------------------------|
    |-----------5b----------------------------3b-----------------|
    |-0-0-0----------0-0-0-----6b---0-0-0----------0-0-0---0-3-0-|
      _____          _____          _____          _____________
    
    |-----------------------------------|
    |-----------------------------------|
    |-----------------------------------|
    |-----------------------------------|
    |-----------5b----------------------|
    |-0-0-0----------0-0-0-----6b---0-0-|
      _____          _____          ___
    
    
    CHORUS:
    
    |-----------------|     |---------------|
    |-----------------|     |---------------|
    |-----------------|     |-6-5-----------|
    |-87-------------|     |-6-5-6---------|
    |-65-3-5-6-5-3-5-|     |-4-3-6---------|
    |-----3-5-6-5-3-5-| 3x  |-----6--000000-| 3x
          ___________                ______
    
    
    |-------|
    |-------|
    |-6-6-6-|
    |-6-6-6-|
    |-4-4-4-|
    |-------|
    
    
    OUTRO: (fades out)
    
    |----------------|     |-------------|
    |----------------|     |-------------|
    |----------------|     |-------------|
    |-1-0--0-5h6-53-|     |---6----63--|
    |-1-0--0-5h6-53-|     |---4----63--|
    |-1-0--0-5h6-53-| 3x  |-0----0-63--|
     

    Тональность:

    Нет текста!



    Назад
    Рекомендуем посмотреть другие песни исполнителя «Diecast»:

    • Комментарии Facebook ()
    • Комментарии ВКонтакте



    Добавить в Избранное Браузера
    Сохранить здесь Очистить


    x

    0


    +
    -

    +
    -

    -

    Авторизация





    Зарегистрироваться

    M

    Дата и время

    • 13:12:08
       

    Социальные ссылки


    Наши приложения

    • Muzbank App Play Market
    • Muzbank Amazon App